Oops, an error
Loading. Please wait.

Jack chords

154 views 9 this week
no commentswrite comment
1 2 3 4 5
2 more votes to show rating
add to favorites
×
Save as Personal and add changes to this tab that will be seen only by you. Learn more ›
×
You can save this tab as Personal to edit and correct it or add notes. All changes will be seen only by you. Learn more »
launch autoscroll
font size
0
reset
transpose
0
reset
display chords
guitar tuner
edit
Autoscroll
slow
fast
+/-
esc
set tempo
stop
Author
Difficulty
Strumming
There is no strumming pattern for this song yet. and get +5 IQ
[Intro]
E|-----------------------------------|
B|-----------------------------2-----|
G|--4-------1---1---------2------2---| (x2)
D|--2---0---2-----2-----2----------2-|
A|--2---0---2---------0--------------|
E|--0-------0-------3----------------|

[Verse 1]
E                        A
Jack was really a jester
             E                   A
Who held his one good eye on the queen
    E                             A
And there sat the king beside her
              E                          A
He's pointing his sword up and down with every scene
        E                       A
And the wizard's in the corner
         E                   A
Catching peanuts between his teeth
        E                               A
And the dogs lying in the shadow in the archway
        E                     A
There's one good dog sleeping filled with good ol' dog dreams

[Instrumental]
E|---------------------------------------------------------------|
B|--5---5--5--5--5--5---5--5-5---0--0----------------------------|
G|--6---6--6--6--6--6---7--7-7---2--2-----------------2--2--2-2-2|
D|--6---6--6--6--6--6---7--7-7---2--2-----2--2--2--2--2--2--2-2-2|
A|--4---4--4--4--4--4---5--5-5---1--1-----2--2--2--2--0--0--0-0-0|
E|-------------------------------------3--0--0--0--0-------------|

E|---------------------------------------------------------------|
B|--5---5--5--5--5--5---5--5-5---0--0----------------------------|
G|--6---6--6--6--6--6---7--7-7---2--2-----4--4--4--4-4-4---------|
D|--6---6--6--6--6--6---7--7-7---2--2-----4--2--2--4-4-4------2--|
A|--4---4--4--4--4--4---5--5-5---1--1-----2--2--2--2-2-2------2--|
E|-------------------------------------3-------------------3--0--|

[Verse 2]
   E                            A
He slipped next to the wizard
          E                      A
Whispered something deep, to the bottom of his ear
         E                                A
A little joke, the one about the farmer's daughter
            E
How she was stomping on grapes
               A
Coming up with blue feet and beer
       E                         A
And he slipped behind the queen
          E                       A
Where the fools go the rich don't mind
E                 A    
Lately the king's knights have turned a little rusty
        E                        A
And his halo - I mean his crown
                           E                A  
Has gone and slipped down around his eyes

[Solo]
E|-----------------------------------------|
B|--5--5-5-----5--5-5-----5--5--5-5---5-5--|
G|--6--6-6-----6--6-6-----6--6--6-6---7-7--|  (x2) 
D|--6--6-6-----6--6-6-----6--6--6-6---7-7--|
A|--4--4-4---0-4--4-4---0-4--4--4-4---5-5--|
E|-----------------------------------------|

[Verse 3]
    E                        A
The wizard's in the corner
        E                   A
Pulling lizards between his knees
        E                       A
And the dog he been long gone
        E                          A
Gone to pitch for the winning team
E                       A
Fifty-two, I mean fifty-four bicycles on the wall
E                                    A
Ready to ride, ready to ride til the last of them falls
E                          A
Jack's been cooking in the kitchen all this time
E                                A
Whompin' up some biscuits for us all
A
For us all
A
For us all

            
            
Suggest correction
Creating personal tab
Creating personal tab
You can edit any tab online and save it as your Personal.

You can edit, replace or remove any tab part or add personal notes – all changes will be seen only by you.

Personal tabs can be accessed anytime from any device, even offline.
Learn more »
Give kudos to tab author, rate the tab!
1 2 3 4 5
comments
print report bad tab
guest
You may want to rate the tab now too:
select rating
Wanna post a correction for this tab? Suggest correction