Oops, an error
Loading. Please wait.

Love Tractor Chords

2,702 views 3 this week
no commentswrite comment
1 2 3 4 5
1 last vote to show rating
add to favorites
launch autoscroll
font size
0
reset
transpose
0
reset
simplify chords
display chords
guitar tuner
Autoscroll
slow
fast
+/-
esc
set tempo
stop
Help us to improve Ultimate-Guitar.com Take our survey!
×
Author
Tabbers playing skills
intermediate
Intro. / Main Riff:
    G                 E       Esus4
  /    /   /   /     /   /   /   /
|---10--10--10--10-|---7---7---7---7--|
|---12--12--12--12-|---9---9--10--10--|
|---12--12--12--12-|---9---9---9---9--|
|---12--10--12--12-|---9---9---9---9--|
|---10--10--10--10-|---7---7---7---7--|
|------------------|------------------|

Verse 1 (with Main Riff):
I'm holding the key
I need no liscense to ride
Dad said that I'm alright

Chorus Riff:
   E                     D     C      (4x)
   /   /      /    /     /  /     /   /
|--7---7----7---7--7---|-5--5--3----3-3--|
|--9---9----10--9--9---|-7--7--5----5-5--|
|.-9---9----9---9--9---|-7--7--5----5-5-.|
|.-9---9----9---9--9---|-7--7--5----5-5-.|
|--7---7----7---7--7---|-5--5--3----5-5--|
|----------------------|-----------------|

Verse 2:
The engine's still warm
She'd been waiting for me in the barn
Gonna make me feel,
Gonna make me feel alright

Chorus (with Chorus Riff):
Well I'm bouncin' in my seat
I try to remember where all the levers are
I've got enough fuel this time
I've got enough fuel this time to re-

   E                 Bm          A     E            (4x)
    /   /   /   /    /   /   /   /     /  /   /   /
|---2-----2---2---|--2---2---2---0--|--0---------------|
|---5-----4---4---|--2---2---2---2--|--0---------------|
|.--4-----4---4---|--4---4---3---2--|--1--------------.|
|.--2-----2---2---|--4---4---4---2--|--2--------------.|
|---2-----2---2---|--2---2---2---0--|--2---------------|
|---0-----0---0---|--0---0---0---0--|--0----2-3-2-3-2--|
    member....
                                                   (3x)
|. /  /  /  / | /  /  /  / | /  /  /  / | /  /  /  / .|
|. A     D      G        A                           .|

| /  /  /  / | /  /  /  / |
     C
Verse 3:
The engine's still warm
She's been waiting for me in the barn
Gonna let me feel, gonna help me feel

(Chorus)

Verse 4:
Enter the Earth
We're scratching our play on the growth of the moon
Mom said, that I'm alright

Jam over the Chorus Riff:
   /   /      /    /     /  /     /   /
|--7---7----7---7--7---|-5--5--3----3-3--|
|--9---9----10--9--9---|-7--7--5----5-5--|
|.-9---9----9---9--9---|-7--7--5----5-5-.|
|.-9---9----9---9--9---|-7--7--5----5-5-.|
|--7---7----7---7--7---|-5--5--3----5-5--|
|----------------------|-----------------|

end on Main Riff:
     G                 E       E'  (4x)
  /    /   /   /     /   /   /   /
|---10--12--10--10-|---7---7---7---7--|
|---12--12--12--12-|---9---9--10--10--|
|---12--12--12--12-|---9---9---9---9--|
|---12--10--12--12-|---9---9---9---9--|
|---10--10--10--10-|---7---7---7---7--|
|------------------|------------------|


   /   /      /    /     /  /    /
|--7---7----7---7--7---|-5----5--3--
|--9---9----10--9--9---|-7----7--5-- Hold C chord while Mike
|.-9---9----9---9--9---|-7----7--5-- wails and Todd pounds
|.-9---9----9---9--9---|-7----7--5-- the skins.
|--7---7----7---7--7---|-5----5--3-- End on a big C chord.
|----------------------|------------
Suggest correction
Give kudos to tab author, rate the tab!
1 2 3 4 5
comments
print report bad tab
guest
You may want to rate the tab now too:
select rating
Wanna post a correction for this tab? Suggest correction