Oops, an error
Loading. Please wait.

Second Skin Bass Tab

1,039 views 1 this week
no commentswrite comment
1 2 3 4 5
please rate
add to favorites
launch autoscroll
font size
0
reset
guitar tuner
Autoscroll
slow
fast
+/-
esc
set tempo
stop
Help us to improve Ultimate-Guitar.com Take our survey!
×
Intro and Main Riff (General Pattern):
G|------------------------|----------------------------------|
D|------111-0-------------|-----111--------------------------|
A|-333--------111-----1-2-|-333-----0h1-----11-22------------|
E|------------------3-----|-------------3--------------------|

Change-Up 1:
G|------------------------|----------------------------------|
D|------------------------|---------------333--11-0----------|
A|-----111----------------|-----111-----------------1--------|
E|-333-----1-0-1-2-3------|-333-----111----------------------|
          x3                     Bridge to Change-Up II

Change-Up 2: Play x4
G|-----------------------------------------------------------|
D|------2p1-----3333-1-0-------------------------------------|
A|-333------111----------------------------------------------|
E|-----------------------------------------------------------|

Chorus: x2
G|-----------------|-------------|--------|------------------|
D|-----------------|-7-5-4-2-----|--------|-----------5-4-2--|
A|-5--5-5-1/5--5-5-|---------5-3-|-3--3-3-|--1/3-3-3---------|
E|-----------------|-------------|--------|------------------|
  "Come Down..."*    "This is..."

G|----------------|--------|---------------|-----------------|
D|----------------|--------|---------------|-----------------|
A|----------------|-3--3-3-|---------------|-----------------|
E|-0--0-0---------|--------|-0--0-0--------|-1-1-1-----------|
   "Love Inside"             "Fear You Hide"

*If playing with a B sting, hit the D note during the first part of the
chorus the second time around.

Jam over the main riff by muting and substituting quarter/eighth notes
(this done periodically during the verses too, so experiment with the
line). Loop the parts again, and you're finished.
Suggest correction
Give kudos to tab author, rate the tab!
1 2 3 4 5
comments
print report bad tab
guest
You may want to rate the tab now too:
select rating
Wanna post a correction for this tab? Suggest correction