Oops, an error
Loading. Please wait.

Sleepy Monkey Tab

545 views 1 this week
no commentswrite comment
1 2 3 4 5
3 more votes to show rating
add to favorites
launch autoscroll
font size
0
reset
how to read this tab
guitar tuner
Autoscroll
slow
fast
+/-
esc
set tempo
stop
Help us to improve Ultimate-Guitar.com Take our survey!
×
Author
Tabbers playing skills
intermediate
The whole tune is played with a reggae rhythm.

Main Chords:
[A7] - 575555   [D7] - x57565   [Esus] - x79977

Mikey's Lead Lick (all notes are picked as triplets):
   /   /   /   /    /   /   /   /
|--12-------------|-----------------|
|------15--13--15-|-13--12--13--12--|
|-----------------|-----------------|
|-----------------|-----------------|
|-----------------|-----------------|
|-----------------|-----------------|

  /  /   /    /     /         /  /        /
|-----------------|---------------------------|
|-----------------|---------------------------|
|-14-14-------12`-|---p-----------------------|
|----------14`----|-14^12`----12`-------------|
|-----------------|-------15`----15^12`---12`-|
|-----------------|--------------------15`----|

  /        /        /        /
|-12-12-12----------15-15-15-17-15-|
|----------15-15-15----------------|
|----------------------------------|
|----------------------------------|
|----------------------------------|
|----------------------------------|

  /        /        /        /
|-17`15`---17`15`---17`15`---15`-|
|-------17`------17`------17`----|
|--------------------------------|
|--------------------------------|
|--------------------------------|
|--------------------------------|

(improv all notes with a `; this is just one possible idea)

Verse 1:
  A7                   D7
I woke to the noise of monkey's knuckles
         A7                D7
Knocking loud on my door.
             A7
He screamed, "Man, let me in
        D7
Or I'll kick your hallway ash tray
    A7                D7
All over the floor!"
                 A7
Well, there were wrinkles in his voice,
D7
Wrinkles in his suit,
     A7                  D7
He'd partied all night before.
    A7                    D7  Esus
The monkey looked tired,
   A7      D7
So tired.

Verse 2:
He came from my door
He shed on my floor,
He jumped up on the back of my chair.
He said, "Lately, it seems,
I've been having these dreams
Of laughin' in African air.
It' could be a deja vu,
Cognition coming true,
I'm living my life more aware."
Monkey looked tired,
So, so tired.

(Solo)

Verse 3:
Let me swing back to the jungle
I'll grab on the clouds as I go
Over waves of the water,
Over partying whales,
Landing softly, on the shoreline below.

(Solo over a more mellow groove)

Verse 4:
Gotta get back to the jungle
There are a lot of little animals there.
The fish and plants breathe in clear water.
The bugs and birds rest on damp air.
I'm going down, I'm going down.
Sleepy monkey,
Oh, sleepy monkey.

Suggest correction
Give kudos to tab author, rate the tab!
1 2 3 4 5
comments
print report bad tab
guest
You may want to rate the tab now too:
select rating
Wanna post a correction for this tab? Suggest correction