Oops, an error
Loading. Please wait.

Surprise Valley Tab

5,076 views 9 this week
no commentswrite comment
1 2 3 4 5
excellent!
x 4
add to favorites
launch autoscroll
font size
0
reset
how to read this tab
guitar tuner
Tab Pro tools
  • play this tab
  • loop segment
  • change instrument
  • show fretboard
  • metronome
Autoscroll
slow
fast
+/-
esc
set tempo
stop
Contributor
Intro. Theme:
    /  /       /   /       /  /       /   /       /
|---0--0--0--2---2---0--|--0--0--0--0---0---0---|--0--------|
|---3--3--3--1---1---0--|--3--3--3--1---1---0---|--1- 2nd- -|
|.--2--2--2--2---2---0--|--2--2--2--2---2---0--.|--0- time -|
|.--0--0--0--0---0---0--|--0--0--0--0---0---0--.|--2- only -|
|-----------------------|-----------------------|--3--------|
|-----------------------|-----------------------|-----------|
    D        D7            D        C              C

Verses:
    /   /   /   /      /   /   /   /
|---5-------5------|---3-------7------|
|---7-------6------|---5-------8------|
|---7-------5------|---5-------7------|
|---7-------7------|---5-------9------|
|---5-------8------|---3-------10-----|
|------------------|------------------|
    D       F          C       G

Verse:
    D          F               C         G
Oh,   kiss the mountain air we breathe
     D        F       C      G
Good-bye it's time to fly.
D                  F                 C
Sparrow climb, the air is thinner,
     G               C             F        C     G
Open wings cast this valley in the shade.


Chorus:
F               Bb
Fires dance the shadows
F                 Bb
Winds whisper the trees
F                  Bb
Mother talkin' the water's
F                Bb                D
Spirit moves, it moves through all things.


Bridge and Jam:
    /   /   /   /
|---0-------1------|
|---2-------1------|
|.--3-------2------|
|.--0--------------|
|------------------|
|------------------|
    D       F

After drum/bass break, fall into the verse chords
for a few bars before returning to the lyrics

Repeat verse and chorus
comments
print report bad tab
I want to post or [tab]
guest
You may want to rate the tab now too:
select rating
Please do not post tabs as comments. Select "correction" instead!