Oops, an error
Loading. Please wait.

Tall Boy Tab

7,150 views 6 this week
no commentswrite comment
1 2 3 4 5
x 3
add to favorites
launch autoscroll
font size
0
reset
how to read this tab
guitar tuner
Autoscroll
slow
fast
+/-
esc
set tempo
stop
Help us to improve Ultimate-Guitar.com Take our survey!
×
Difficulty
novice
<><><><><><><><><><><><><><><><><><><><><><><><><><>
                            T A L L   B O Y  /  W I D E S P R E A D   P A N I C
<><><><><><><><><><><><><><><><><><><><><><><><><><>

Tabbed by:Hunter (||)

Tuning:Standard(EADGBe)

Intro:
e----------------------------------------------------------------------------------|
B----------------------------------------------------------------------------------|
G--14--16--17--17--16--14--14--12--14/16--14-14-14---------------------------------|
D----------------------------------------------------------------------------------|
A----------------------------------------------------------------------------------|
E----------------------------------------------------------------------------------|

e----------------------------------------------------------------------------------|
B----------------------------------------------------------------------------------|
G--11/12--11--11--9--7----11/12--11--11--9--7--------------------------------------|
D----------------------------------------------------------------------------------|
A----------------------------------------------------------------------------------|
E----------------------------------------------------------------------------------|

e----------------------------------------------------------------------------------|
B----------------------------------------------------------------------------------|
G--14--16--17--17--16--19--17--16--14-14-14----------------------------------------|
D----------------------------------------------------------------------------------|
A----------------------------------------------------------------------------------|
E----------------------------------------------------------------------------------|

e----------------------------------------------------------------------------------|
B----------------------------------------------------------------------------------|
G--11/12--11--11--9--7----11/12--11--11--9--7--------------------------------------|
D----------------------------------------------------------------------------------|
A----------------------------------------------------------------------------------|
E----------------------------------------------------------------------------------|

Verse:
e----------------------------------------------------------------------------------|
B----------------------------------------------------------------------------------|
G--7-7---5-5---through out then----7-7----------5-----5--5-----5-------------------|
D--7-7---5-5-----------------------7-7--3-3-----5--3--5--5--3--5-------------------|
A--5-5---3-3-----------------------5-5--1-1-----3--1--3--3--1--3-------------------|
E--x-x---x-x-----------------------x-x--1-1-----x--1--x--x--1--x-------------------|


Chorus:
e-------1-1-----1------------------------------------------------------------------|
B-------1-1-----1------------------------------------------------------------------|
G--5-5--2-2--5--2--5--------------throught chorus----------------------------------|
D--5-5--3-3--5--3--5---------------------------------------------------------------|
A--3-3--3-3--3--3--3---------------------------------------------------------------|
E--x-x--1-1--x--1--x---------------------------------------------------------------|

Thats About it. The solo is in c or d major if you want help with it leave a comment.
Suggest correction
Give kudos to tab author, rate the tab!
1 2 3 4 5
comments
print report bad tab
guest
You may want to rate the tab now too:
select rating
Wanna post a correction for this tab? Suggest correction