Oops, an error
Loading. Please wait.

Waker Tab

2,282 views 6 this week
no commentswrite comment
1 2 3 4 5
3 more votes to show rating
add to favorites
launch autoscroll
font size
0
reset
how to read this tab
guitar tuner
Autoscroll
slow
fast
+/-
esc
set tempo
stop
Help us to improve Ultimate-Guitar.com Take our survey!
×
Author
Tabbers playing skills
intermediate
Intro.:
|------------------------------|
|------------------------------|
|------------------------------|
|---5--4--2--4--5---4---0------|
|---------------------------3--|
|------------------------------|
    G     Em        D       C

|--------------------------------|
|--------------------------------|
|--(0)-------(0)--------(5)------|
|--5--4--2--4--5---7--\4---/10---|
|--------------------------------|
|--------------------------------|
   G     Em        D        C

|------------------------------|
|------------------------------|
|----(0)-----------------------|
|---5--4--2--4--5---4---0------|
|---------------------------3--|
|------------------------------|
    G     Em        D       C

|-------------------------------------|
|-------------------------------------|
|-------------------------------------|
|------h---0--2--4--5--4--5--/7---5---|
|-----0^2-----------------------------|
|--3----------------------------------|
   G          Em              D   C

Verse 1:
G     Em      D   C
   My name is the Waker
G          Em           D      C
   And I'm bringin' you the morning sun
G       Em             D         C
   I've pushed the old man up forever
G          Em        D      C
   Still I feel I've just begun

D   C  (x3)

C              D   C   D   C
   I've just begun

Verse 2:
My name is treetop
And I'm higher than you'll ever be
I'm married to my roots here
Still I feel like I am free

D   C  (x3)

C              D   C  (x3)   C
   Feelin' I'm   free

Solo:
|---0---------------------------------|
|---0---------------------------------|
|.--0---------------------------------|
|.--2---------------------------------|
|---2-trem----0--2---0------0-0-------|
|---0----0--3------------3--------3---|
    Em           G          A

|--0-----------------------------------|
|--0-----------------------------------|
|--0--------0--2--2/4--2--0--2-2--0---.|
|--2------2---------------------------.|
|--2-trem------------------------------|
|--0-----------------------------------|
   Em               G        A

|-----|-----------------------------------------------|
|-----|---15--13--12----------------------------------|
|.---.|---------------14--12--11--12--14--12--11--9---|
|.---.|-----------------------------------------------|
|-----|-----------------------------------------------|
|-----|-----------------------------------------------|
   C     D     C       D       C       D       C

|------|-----------------------------------------|
|------|---15--13--12--13--15--17--19--19(b20)---|
|--\5--|-----------------------------------------|
|------|-----------------------------------------|
|------|-----------------------------------------|
|------|-----------------------------------------|
    C    D     C       D       C       G

Verse 3:
My name is blue sky
And I'm bluer than all of you
I've watched you run around forever
Always searching for something new

D   C  (x3)

C                       D   C  (x3)
   There's nothing new
C                    D   C  (x3)
   Feelin' I'm free
C                   D   C  (x3)
   I've just begun
C                    D   C  (x3)
   I'm always young
C                     D   C  (x3)
   Love's always new

C (slower)          D

Suggest correction
Give kudos to tab author, rate the tab!
1 2 3 4 5
comments
print report bad tab
guest
You may want to rate the tab now too:
select rating
Wanna post a correction for this tab? Suggest correction