Oops, an error
Loading. Please wait.

Hard Times solo tab

158 views 1 this week
no commentswrite comment
1 2 3 4 5
3 more votes to show rating
add to favorites
×
Save as Personal and add changes to this tab that will be seen only by you. Learn more ›
×
You can save this tab as Personal to edit and correct it or add notes. All changes will be seen only by you. Learn more »
launch autoscroll
font size
0
reset
how to read this tab
guitar tuner
edit
Autoscroll
slow
fast
+/-
esc
set tempo
stop
Author
Thanks Molly and Robert for all your hard work. You guys are great

What follows is Robert's awesome Hard Times solo. This tab was done pretty quickly, but 
if you listen to it
you'll get the idea of the bends and the vibrato and tremolo used especially on those 
E's (9). Apologies for
essentially writing all of this without any timing, but you'll get the picture.

(/) Slide Up  (\) Slide Down  (h) Hammer On  (p) Pull Off  (b) Bend (r) Release (v) Vibrato

Stave 1:

E|--------------------------------------------------------------------------------------------------------|
B|--------------------------------------------------------------------------------------------------------|
G|--14--11--9--6--4--2--------------------------------2--4--9--9--9--9--9--9--9--9--9--9--9--9--9--9--14--|
D|----------------------4--2--------------------2--4------------------------------------------------------|
A|----------------------------4--2--------2--4------------------------------------------------------------|
E|----------------------------------2--5------------------------------------------------------------------|

Stave 2:

E|------------------------------------------------------------------------------------------------------|
B|------------------------------------------------------------------------------------------------------|
G|------9-------11-------9---------------9------11------11------11---9----------16--14------16--14------|
D|--11------11------11------11--11--11------11------11------11----------11--9-----------16----------16--|
A|------------------------------------------------------------------------------------------------------|
E|------------------------------------------------------------------------------------------------------|

Stave 3:

E|-----------------------------------------------------------------------|
B|-----------------------------------------------------------------------|
G|--16--14------16--14------16--14---------------------------------------|
D|----------16----------16----------16--14-------------------------------|
A|------------------------------------------16--14-----------------------|
E|--------------------------------------------------17--14--12--9--7--5--|
Suggest correction
Creating personal tab
Creating personal tab
You can edit any tab online and save it as your Personal.

You can edit, replace or remove any tab part or add personal notes – all changes will be seen only by you.

Personal tabs can be accessed anytime from any device, even offline.
Learn more »
Give kudos to tab author, rate the tab!
1 2 3 4 5
comments
print report bad tab
guest
You may want to rate the tab now too:
select rating
Wanna post a correction for this tab? Suggest correction