Oops, an error
Loading. Please wait.

Bu De Bu Ai Tab

version 1
version 1

Whole song

Interactive

12,273 views 6 this week
no commentswrite comment
1 2 3 4 5
excellent!
x 1
add to favorites
launch autoscroll
font size
0
reset
how to read this tab
guitar tuner
Tab Pro tools
  • play this tab
  • loop segment
  • change instrument
  • show fretboard
  • metronome
Autoscroll
slow
fast
+/-
esc
set tempo
stop
Contributor
Difficulty
intermediate
Official website found at: http://www.willpan.com.tw/bbs/

Ok, so basically, this song was originally written by the Korean band, "Freestyle" but
Wilber got a whole of it and re-wrote the lyrics and whatever. But, for either versions,
guitar is still the same. I decided to quit looking around for a decent tab to this, so 
made one up. It's not 100% accurate, but give it a try before you say something.


Capo 1st fret


Basic Chords are *all in terms with capo*

Em - 079987
C - 035553
D - 057775
G - 320033
G/B - 200033


ok ok, you basically play all those chords in that order throughout the entire song.

Ok, now for the hard part.

This is the basic riff thingy going throughout the entire song, but this is just what I
out from what I could hear. *all in capo*

Guitar 1
e|---------------------------3-------------8--------------------------|
b|-8-------8--------------5-------------7------------3-----------3----|
g|---9-----------------5-------------7----------------------0---------|
d|-----9------------5-------------7--------------5--------------------|
a|-------7-------3-------------5--------------------------------------|
E|--------------------------------------------3--------2--------------|


Guitar 2
e|------------------8h10p8------------------7---7h8--7--5|
b|---------------------------------------------------8--7|
g|-------------------------------------------------------|
d|-------------------------------------------------------|
a|-------------------------------------------------------|
E|-------------------------------------------------------|

That's it! If you have any questions comments, dont hesistate to email me at mage2052001@yahoo.com
comments
We did not receive enough feedback on this tab! Please rate:
print report bad tab
1 2 3 4 5
I want to post or [tab]
guest
You may want to rate the tab now too:
select rating
Please do not post tabs as comments. Select "correction" instead!