Oops, an error
Loading. Please wait.

Bu De Bu Ai Tab

version 3
version 3

Whole song

Interactive

38,309 views 18 this week
4 commentsread comments
1 2 3 4 5
x 11
add to favorites
launch autoscroll
font size
0
reset
how to read this tab
guitar tuner
Autoscroll
slow
fast
+/-
esc
set tempo
stop
Help us to improve Ultimate-Guitar.com Take our survey!
×
Author
Capo
1st fret
-------------------------------------------------------------------------------
                             Wilber Pan - Bu De Bu Ai
-------------------------------------------------------------------------------
Tabbed by: David G

Tuning: Standard (Capo on 1st Fret) (or Tune One half-step up)

Intro Background Guitar 1
e|--------0-----5-|----------3-|------2h5p2----|
b|--0--------3----|-1----------|--0----------3-|
g|------0---------|-----0------|---------------|
d|----------------|------------|---------------|
a|----------------|-0----------|--2------------|
E|--0-------------|------------|---------------| 4x

Intro Lead Guitar 2
e|------------------|--7----8-7--------------------------|--10-8-7---8-7-------------------|
b|----5-7-8p7--10-8-|----10-----10-8-7h8p7---10-7--------|---------8-----10-8-7-8-7--------|
g|--9---------------|-----------------------9-----7--7/9-|--------------------------7--7/9-|
d|------------------|------------------------------------|---------------------------------|
a|------------------|------------------------------------|---------------------------------|
E|------------------|------------------------------------|---------------------------------|

e|-------------7--10-8h10p8p7-----|--8p7----------------------|---------------7-10-8-7--------|
b|-----------8-----------------10-|-------10-8-7-8p7----------|-------------8----------10-8-7-|
g|---------9----------------------|------------------9-7-7/9--|-----------9-------------------|
d|--7h9--9------------------------|---------------------------|--9h10--10---------------------|
a|--------------------------------|---------------------------|-------------------------------|
E|--------------------------------|---------------------------|-------------------------------|

Verses/Chorus (Basically the whole song)
e|--3------0-|------------|-----------8---|--7----5-5-|
b|------0--0-|------1h3-1-|--------7------|--0----3-3-|
g|----0----0-|------0---0-|------7--------|-----------|
d|--2--------|----2-------|----7----------|-----------|
a|-----------|--0---------|--5------------|-----------|
E|-----------|------------|---------------|--3----2-2-|

Bridge (3:28)
e|--------|--------|----------|--------|
b|------1-|------3-|--------3-|------0-|
g|----2---|----2---|------0---|----0---|
d|--------|--0-----|----4-----|--------|
a|--0-----|--------|----------|--------|
E|--------|--------|--3-------|--0-----|

e|--------|--------|--------|--------|
b|------1-|------3-|------3-|------0-|
g|----2---|----2---|----2---|----1---|
d|--------|--0-----|--------|--------|
a|--0-----|--------|--------|--------|
E|--------|--------|--1-----|--0-----|

e|--------|--------|---------|--------|--------|--------|
b|------1-|------3-|-------3-|------0-|------1-|------3-|
g|----2---|----2---|-----0---|----0---|----2---|----2---|
d|--------|--0-----|---------|--------|--------|--0-----|
a|--0-----|--------|---------|--------|--0-----|--------|
E|--------|--------|---3-----|--0-----|--------|--------| (back to verses)

After this, repeat verses/chorus til the end.

That's about it. Good luck!

| /  slide up
| \  slide down
| h  hammer-on
| p  pull-off
| ~  vibrato
| +  harmonic
| x  Mute note
===============================================================================
Suggest correction
comments
print report bad tab
4 comments total. Showing first comments.
0 reply
J-Rift 198 Jun 02, 2007 03:00 AM

Dude the first part is wrong... u even said it in ur youtube vid... its 3 5 not 2 3... just letting u know

0 reply
timmyinpajamas 30 Jun 04, 2008 02:27 PM

good job !! .. i never thought id find this tab .. thanks alot .. keep up the good work

0 reply
SaddamJose 10 Jul 15, 2009 08:23 AM

what happens if I place a capo? how do i use this tab?

guest
You may want to rate the tab now too:
select rating
Wanna post a correction for this tab? Suggest correction