Oops, an error
Loading. Please wait.

Kansas City bass

499 views 9 this week
no commentswrite comment
1 2 3 4 5
3 more votes to show rating
add to favorites
×
Save as Personal and add changes to this tab that will be seen only by you. Learn more ›
×
You can save this tab as Personal to edit and correct it or add notes. All changes will be seen only by you. Learn more »
launch autoscroll
font size
0
reset
guitar tuner
edit
Autoscroll
slow
fast
+/-
esc
set tempo
stop
-------------------------------------------------------------------------------
                          Kansas City - Wilbert Harrison
-------------------------------------------------------------------------------
Tabbed by: CorporalCrunch
Tuning: Standard


Intro:
G|---5-8-5-5----3-6-3-3--------3-3----------3---|
D|-6----------4------------3-6--------3-6-6---6-|
A|-----------------------4----------4-----------|
E|----------------------------------------------|


Verse 1: "Goin' to Kansas City..."                     "They got some..."
G|-----------------|-----3-3-6-6-3-6-|-------------3---|-----5-5-8-8-5-8------3-3-6-6-3-6-|
D|-----3-3-6-6-3-6-|-4-4-------------|-----3-3-6-6---3-|-6-6--------------4-4-------------|
A|-4-4-------------|-----------------|-4-4-------------|----------------------------------|
E|-----------------|-----------------|-----------------|----------------------------------|
         x4                 x2                x2                                               
G|-----------------|
D|-----3-3-6-6-3-3-|
A|-4-4-------------|
E|-----------------|
         x2


Verse 2: "I'm gonna be stand on the corner..."         "They got some..."
G|-----------------|-----3-3-6-6-3-6-|-----------------|-----5-5-8-8-5-8------3-3-6-6-3-6-|
D|-----3-3-6-6-3-6-|-4-4-------------|-----3-3-6-6-3-6-|-6-6--------------4-4-------------|
A|-4-4-------------|-----------------|-4-4-------------|----------------------------------|
E|-----------------|-----------------|-----------------|----------------------------------|
         x4                 x2                x2                                             
G|-------------3---|
D|-----3-3-6-6---6-|
A|-4-4-------------|
E|-----------------|
         x2


Verse 3: "Well I might take a train..."                "They got some..."
G|-------------3---|-----3-3-6-6-3-6-|-------------3---|-----5-5-8-8-5-8------3-3-6-6-3-6-|
D|-----3-3-6-6---6-|-4-4-------------|-----3-3-6-6---3-|-6-6--------------4-4-------------|
A|-4-4-------------|-----------------|-4-4-------------|----------------------------------|
E|-----------------|-----------------|-----------------|----------------------------------|
         x4                 x2                x2                                               
G|-----------------|
D|-----3-3-6-6-3-3-|
A|-4-4-------------|
E|-----------------|
         x2


Guitar Solo:
G|-----------------|-------------3---|-----3-3-6-6-3-6-3-|-------------3---|
D|-----3-3-6-6-3-6-|-----3-3-6-6---6-|-4-4---------------|-----3-3-6-6---3-|
A|-4-4-------------|-4-4-------------|-------------------|-4-4-------------|
E|-----------------|-----------------|-------------------|-----------------|
                            x3                  x2                 x2
G|-----5-5-8-8-5-8------3-3-6-6-3-6--------------3---|
D|-6-6--------------4-4------------------3-3-6-6---6-|
A|-----------------------------------4-4-------------|
E|---------------------------------------------------|


Verse 4: "Now if I see you with that woman..."          "They got some..."
G|-------------3---|-----3-3-6-6-3-6-|-------------3---|-----5-5-8-8-5-8------3-3-6-6-3-6-|
D|-----3-3-6-6---6-|-4-4-------------|-----3-3-6-6---6-|-6-6--------------4-4-------------|
A|-4-4-------------|-----------------|-4-4-------------|----------------------------------|
E|-----------------|-----------------|-----------------|----------------------------------|
         x4                 x2                x2                                               
G|-------------3---|
D|-----3-3-6-6---6-|
A|-4-4-------------|
E|-----------------|
         x2
"They got some..."
G|-----5-5-8-8-5-8------3-3-6-6-3-6-|-----------------|
D|-6-6--------------4-4-------------|-----3-3-6-6-3-6-|
A|----------------------------------|-4-4-------------|
E|----------------------------------|-----------------|
                                              x2

===============================================================================

            
            
Suggest correction
Creating personal tab
Creating personal tab
You can edit any tab online and save it as your Personal.

You can edit, replace or remove any tab part or add personal notes – all changes will be seen only by you.

Personal tabs can be accessed anytime from any device, even offline.
Learn more »
Give kudos to tab author, rate the tab!
1 2 3 4 5
comments
print report bad tab
guest
You may want to rate the tab now too:
select rating
Wanna post a correction for this tab? Suggest correction