Oops, an error
Loading. Please wait.

A Shot In The Arm Bass Tab

3,999 views 3 this week
no commentswrite comment
1 2 3 4 5
please rate
add to favorites
launch autoscroll
font size
0
reset
guitar tuner
Tab Pro tools
  • play this tab
  • loop segment
  • change instrument
  • show fretboard
  • metronome
×
Best way to learn
"A Shot In The Arm"
Autoscroll
slow
fast
+/-
esc
set tempo
stop
Contributor
Difficulty
novice
-------------------------------------------------------------------------------
			    Shot in the Arm - Wilco
-------------------------------------------------------------------------------

Tabbed By : fl!ck!
e-mail: talek_cornish@hotmail.com

Tuning: standard

simple riffs, you repeat this over the entire song (very basic structure, 3 chords) and 
where necessary. :D
---The ashtray says...
x2-You were up all night...                          When you
G||----------------------------------------------------------||
D||-o-------------------------------12----11----9-11-9-----o-||
A||-o----------------------------12----12----12--------12--o-||
E||------10-10-10-10-10-10-10-10-----------------------------|| repeat 2x
---went to bed
G|----------------------------------------|
D|----------------------------------------|
A|-10-10-10-10-10-------------------------|
E|----------------12-10-8\3-3-3-3-3-3-3-3-|
---in your darkest mind
G|---------------------------------|
D|---------------------------------|
A|---------------------------------|
E|-3-3-3-3-5-5-5-5-6-6-6-6-8-8-8-8-|
repeat those riffs for the next verse, then:
You changed
G||----------------------------------------------------------||
D||-o-------------------------------12----11----9-11-9-----o-||
A||-o----------------------------12----12----12--------12--o-||
E||------10-10-10-10-10-10-10-10-----------------------------|| repeat 2x
two more verses, then
You changed
G|--------------------------------------------------------|
D|-----------------------------12----11----9-11-9---------|
A|--------------------------12----12----12--------12-10~~~|
E|--10-10-10-10-10-10-10-10-------------------------------| repeat 2x

Maybe all I need is a shot in the arm
G||----------------------------------------------------------||
D||-o-------------------------------12----11----9-11-9-----o-||
A||-o----------------------------12----12----12--------12--o-||
E||------10-10-10-10-10-10-10-10-----------------------------|| repeat 3x
Maybe all I need is a shot in the arm
G||----------------------------------------------------------||
D||-o-------------------------------12----11----9-11-9-----o-||
A||-o----10-10-10-10-10-10-10-10-12----12----12--------12--o-||
E||----------------------------------------------------------|| repeat 3x
Something in my veins, bloodier than blood
G||----------------------------------------------------------||
D||-o-------------------------------12----11----9-11-9-----o-||
A||-o----------------------------12----12----12--------12--o-||
E||------10-10-10-10-10-10-10-10-----------------------------|| repeat a bunch


that's pretty much the song... easy stuff.... enjoy... very entertaining bass line, it 
the song imo, so, yay :D
comments
We did not receive enough feedback on this tab! Please rate:
print report bad tab
1 2 3 4 5
I want to post or [tab]
guest
You may want to rate the tab now too:
select rating
Please do not post tabs as comments. Select "correction" instead!