Oops, an error
Loading. Please wait.

Ashes Of American Flags Tab

14,337 views 36 this week
1 commentread comment
1 2 3 4 5
x 4
add to favorites
launch autoscroll
font size
0
reset
how to read this tab
guitar tuner
Autoscroll
slow
fast
+/-
esc
set tempo
stop
Help us to improve Ultimate-Guitar.com Take our survey!
×
Author
-------------------------------------------------------------------------------
                    ASHES OF AMERICAN FLAGS - Wilco
-------------------------------------------------------------------------------
Tabbed by: Ben Aitken
Email: ben.j.aitken@gmail.com

As played on "Kicking Television: Live in Chicago"
Tuning: G1 acoustic: standard
        G2 electric: standard

| T  play bass note w/ thumb
| `  up-strum chord
| <  volume swell
| b  bend
| r  release bend/tremolo bar
| d  dip tremolo bar to note
| f  feedback pitch
| m  tremolo pick
| /  slide up
| \  slide down
| h  hammer-on
| p  pull-off
| ~  tremolo bar
| +  harmonic
| x  Mute note

Chords used in song:

 D     G    G/F#   Em    A    D7/F#  Bm   EmMaj7 Asus4  A6   Asus2
|-2-| |-3-| |---| |-0-| |-0-| |-2-| |-2-| |---|  |-0-| |-2-| |-0-|
|-3-| |-3-| |-3-| |-0-| |-2-| |-1-| |-3-| |-0-|  |-3-| |-2-| |-0-|
|-2-| |-0-| |-0-| |-0-| |-2-| |-2-| |-4-| |-0-|  |-2-| |-2-| |-2-|
|-0-| |-0-| |-0-| |-2-| |-2-| |-0-| |-4-| |-1-|  |-2-| |-2-| |-2-|
|---| |-2-| |-x-| |-2-| |-0-| |-x-| |-2-| |-2-|  |-0-| |-0-| |-0-|
|---| |-3-| |-2-| |-0-| |---| |-2-| |-2-| |-0-|  |---| |---| |---|
                                T

-|--2----2----2--2--2----2--2--2----2--2--3----3----3--3-------3--3-------3--3---|
-|--3----3----3--3--3----3--3--3----3--3--3----3----3--3-------3--3-------3--3---|
-|--2----2----2--2--2----2--2--2----2--2--0----0----0--0-------0--0-------0--0---|
-|--0----0----0--0--0----0--0--0----0--0--0----0----0--0-------0--0--0h2--2--2---|
-|------------------0----0--0--x----x--x--2----2----2--2--0h2--2--2--------------|
-|-----------------------------2----2--2--3----3----3--3-------------------------|
  G1 intro 2x (Fig. 1)         T    T  T

-|--------------------------------------------------------------------------5------|
-|----------------------------------------------------------------------------7b8--|
-|------------------------------------------------------------------------7--------|
-|---------------------------------------------------------------------------------|
-|---------------------------------------------------------------------------------|
-|---------------------------------------------------------------------------------|
  G2 intro (second time around)

G1 verse: D-G-D-G-G/F#-Em-A-D-G

-|---------|---------|--------|--------|--`0----|--------|-------|----------5--------|
-|-r7------|--3<-----|--------|--------|--`0----|--2<----|--3----|--0----------7b8---|
-|---------|---------|--2<----|--0<----|--`0----|--2<----|--2----|--0----------------|
-|---------|---------|--------|--------|--`2----|--2<----|--0----|--0----7-----------|
-|---------|---------|--------|--------|--`2----|--------|-------|-------------------|
-|---------|---------|--------|--------|--`0----|--------|-------|-------------------|
  G2 verse

G1: Fig 1 2x, with G/F# at end of second time

-|--------------------------------------------------------------------------------|
-|--r7------------5h7r5\3~~~~~~~~-------------------------------------------------|
-|---------------------------------2/4\2------------------------------------------|
-|----------------------------------------------0<----2/4/5\4----2h4p2p0-----0----|
-|------------------------------------------------------------------------2-------|
-|--------------------------------------------------------------------------------|
  G2

G1 prechorus: Em-A-D-G-D7/F#

-|-`0----|--------|--2----|-------|---------------------------|
-|-`0----|--2<----|--3----|--0----|--------1-----------1------|
-|-`0----|--2<----|--2----|--0----|-----2-----2-----2-----2---|
-|-`2----|--2<----|--0----|--0----|--4-----------4------------|
-|-`2----|--------|-------|-------|---------------------------|
-|-`0----|--------|-------|-------|---------------------------|
  G2 prechorus

G1 chorus: G-Bm-Em-EmMaj7-A

-|-------3-------------2----------0-----------------------------|
-|----------3-------3----------------0-------0--0-----2---------|
-|------------------4------------------------0--------2---------|
-|--4/5----------4----------4--2----------1--------1--2---------|
-|--------------------------------------------------------------|
-|--------------------------------------------------------------|
  G2 (Fig. 2)

G1: Fig. 1 2x

-|---------|
-|--3<-----|
-|---------|
-|---------|
-|---------|
-|---------|
  G2

G1 Verse: No chord (D-G-D-G)-Em-A-Asus4-A6-Asus2-D-G-D7/F#

-|-------------------------------------------|---------------------------|
-|--(3)d2----------f9rf10df9rf10df9rf10------|--------1-----------1------|
-|-------------------------------------------|-----2-----2-----2-----2---|
-|-------------------------------------------|--4-----------4------------|
-|-------------------------------------------|---------------------------|
-|-------------------------------------------|---------------------------|
  G2 verse

G1 Chorus: G-Bm-Em-EmMaj7-A
G2 Chorus: Fig. 2

G1 plays Fig. 1 2x with G/F# end of second time
G1 prechorus: Em-A-D-G-D7/F#

-|-----5---------------------------5-------------------------------------------------------|
-|--------7b8r7-----------------------7b8r7--------(7)p5\3~~~~----------1-----------1------|
-|--7------------------6--------7------------------------------------2-----2-----2-----2---|
-|----------------------------------------------------------------4-----------4------------|
-|-----------------------------------------------------------------------------------------|
-|-----------------------------------------------------------------------------------------|
  G2 prechorus

G1 Chorus: G-Bm-Em-EmMaj7-A
G2 Chorus: Fig. 2

-|---------------------------------------|
-|--2--------2--------2--------2---------|
-|--2--------0--------2--------0---------|
-|--0--------0--------0--------0---------|
-|---------------------------------------|
-|---------------------------------------|
  G2 verse

   D                        G             D                    G
-|-------------------------------------------------------------------------------|
-|-----------------------------3--------5/7--------------------------------------|
-|-----------------------------------------------6b7r6----6/7--------------------|
-|--2p0--------0h4---------------------------------------------9--9----9\7/9-----|
-|------------------------0h2----------------------------------------------------|
-|-------------------------------------------------------------------------------|
  G2 beginning of solo (chord changes above)

             D                        G                                         D
-|----------------------------------------------------------------------------------------------------|
-|----------------------------------------------------------------------------------------------------|
-|-------------------7-------7-----6b7r6b7r6b7r6--7p6p4-------------------------6--------6--6b7r6-----|
-|--2h4p2p0--2--4-------4-------4-----------------------7--5--5--7/9--9----7/9-----0--0---------------|
-|----------------------------------------------------------------------------------------------------|
-|----------------------------------------------------------------------------------------------------|

                          G                                   D                          G
-|---------------------------------------------12----10-12-10-9~~~~\----12h14~~~~--12\---|
-|-------------10--10/12--12--12m--12\8--------------------------------------------------|
-|--6/7--9/11----------------------------------------------------------------------------|
-|---------------------------------------------------------------------------------------|
-|---------------------------------------------------------------------------------------|
-|---------------------------------------------------------------------------------------|

                                                                  D                      
          G
-|--15p14p12--14--15~~p14p12----14--15p14p12--14--15----15p14p12--14~~~~--9\-------------------------------|
-|------------------------------------------------------------------------------14--17----17p15p14--15-----|
-|---------------------------------------------------------------------------------------------------------|
-|---------------------------------------------------------------------------------------------------------|
-|---------------------------------------------------------------------------------------------------------|
-|---------------------------------------------------------------------------------------------------------|

                                   D                                          G
-|------------------15-------------------------14~~\------------------------------------------------------------|
-|-------15---------15---------15--15-------------------17p15p14--15-14p15h14-----------------------------------|
-|--/16--------/16--------/16----------14--14---------------------------------14--12\11/12-11h12p11\9--7h9p7\6--|
-|--------------------------------------------------------------------------------------------------------------|
-|--------------------------------------------------------------------------------------------------------------|
-|--------------------------------------------------------------------------------------------------------------|

                                     D
-|------------------------------------------|
-|------------------------------------------|
-|--7/9--9--9\7--7\4--4\2--2--2h4p2p0-------|
-|------------------------------------4-----|
-|------------------------------------------|
-|------------------------------------------|


===============================================================================
Suggest correction
comments
print report bad tab
1 comment total.
0 reply
Last Dinosaur 10 May 21, 2008 02:16 AM

Fantastic tab, but where's the rest of the solo?

guest
You may want to rate the tab now too:
select rating
Wanna post a correction for this tab? Suggest correction