Oops, an error
Loading. Please wait.

At Least Thats What You Said Bass Tab

2,271 views 6 this week
1 commentread comment
1 2 3 4 5
please rate
add to favorites
launch autoscroll
font size
0
reset
guitar tuner
Autoscroll
slow
fast
+/-
esc
set tempo
stop
Help us to improve Ultimate-Guitar.com Take our survey!
×
Author
Difficulty
novice
intro
E|---5---5---5---5---5---5---5---3---3---3---3---3---3---3|x2
A|--------------------------------------------------------|
D|--------------------------------------------------------|
G|--------------------------------------------------------|

                  during solo
E|/121212121212--/5-55-3-55-5-55-3-55-3-33-1-33-3-33-1|
A|----------------------------------------------------|
D|----------------------------------------------------|
G|----------------------------------------------------|

E|5-55-3-55-5-55-3-333-3-5-7-7-5-7-7-5-|
A|------------------------------------5|
D|-------------------------------------|
G|-------------------------------------|


during piano outro
E|5-5-5-5-5-5-5-3-3-3-3-3-3-5-5-5-5-5-5-3-3-3-3-33333-5|
A|-----------------------------------------------------|
D|-----------------------------------------------------|
G|-----------------------------------------------------|

TO SPICE IT UP IF YU WANT U CAN PLY THE PARTS DURING THE SOLO ON THE E STRING ON THE 15-17-19
Suggest correction
Give kudos to tab author, rate the tab!
1 2 3 4 5
comments
print report bad tab
1 comment total.
0 reply
Kyle86 71 wrote on June 27 2008, 04:31 pm

do you not know how to tab or something? have you ever seen a tab before in your life?

you have it upside down!

guest
You may want to rate the tab now too:
select rating
Wanna post a correction for this tab? Suggest correction