Oops, an error
Loading. Please wait.

Bob Dylans Beard Tab

7,741 views 15 this week
2 commentsread comments
1 2 3 4 5
excellent!
x 5
add to favorites
launch autoscroll
font size
0
reset
how to read this tab
guitar tuner
Autoscroll
slow
fast
+/-
esc
set tempo
stop
Help us to improve Ultimate-Guitar.com Take our survey!
×
Author
Capo
5th fret
-------------------------------------------------------------------------------
                   BOB DYLAN'S 49TH BEARD - Wilco
-------------------------------------------------------------------------------
Tabbed by: Ben Aitken
Email: ben.j.aitken@gmail.com

As played on the "More Like the Moon" EP
Tuning: Standard, capo on 5
Not all stumming is notated

|h  hammer on

G   |3 2 0 0 3 x|
C   |x 3 2 0 1 x|
D5  |x 0 0 2 3 x|

||-----------------|--------------------|-------------------|------------------------------||
||-----------------|--1----1--1----1--1-|-1----1----1--1--1-|-1----1----1--1--1------------||
||--0-------0------|--0----0--0----0--0-|-0----0----0--0--0-|-0----0----0--0--0------------||
||--0----0--0------|--2----2--2----2--2-|-4----4----4--4--4-|-2----2----2--2--2--0h2--0----||
||-------0--2------|--3----3--3----3--3-|-3----3----3--3--3-|-3----3----3--3--3----------3-||
||--3-------3------|--------------------|-------------------|------------------------------||

                                                                                 You'll be
||---------------------|-------------------|-------------------------|---------------------||
||------------3--3--3--|-------------------|-1----1--1--1--1--1------|-3----3--3--3--3--3--||
||-0----------0--0--0--|--0----------------|-0----0--0--0--0--0------|-2----2--2--2--2--2--||
||-0----------0--0--0--|--0----------------|-2----2--2--2--2--2------|-0----0--0--0--0--0--||
||-----2--2---2--2--2--|-------3--2----0h2-|-3----3--3--3--3--3--0h2-|-0----0--0--0--0--0--||
||--------3---3--3--3--|-------------------|-------------------------|---------------------||

|G              |         |
Happier when I'm gone, I'm
|C              |     |
Much too busy to worry
|G              |                     |       
I'll be sad and you'll feel bad, but I
|C                |         |
Know you won't be sorry

|G          |      |
As I turn to go
|C                |      |
Please don't wave goodbye
|G                 |                        |
I refuse to cry on roads that are paved with
|C        |D            |
Men who behave like they
|C                 |D       |
Know where they're going

|G                      |        |
And I'll stop along the way
|C                      |        |
It's then I'll think of you
|G                              |
And I'll wonder if you knew when
|C    |D    |
I got blue
 
                  And  things   got    weird                
||------|----------------------------|---------------------------------||
||------|-1----1--1--1--1----1--1--1-|-3----3--3--3--3----3--3--3------||
||------|-0----0--0--0--0----0--0--0-|-2----2--2--2--2----2--2--2------||
||------|-2----2--2--2--2----2--2--2-|-0----0--0--0--0----0--0--0------||
||--0h2-|-3----3--3--3--3----3--3--3-|-0----0--0--0--0----0--0--0--0h2-||
||------|----------------------------|---------------------------------||

            And  I   started     growing  
||-----------------------------|---------------------------------||
||--1----1--1--1--1----1--1--1-|-3----3--3--3--3----3--3--3------||
||--0----0--0--0--0----0--0--0-|-2----2--2--2--2----2--2--2------||
||--2----2--2--2--2----2--2--2-|-0----0--0--0--0----0--0--0------||
||--3----3--3--3--3----3--3--3-|-0----0--0--0--0----0--0--0--0h2-||
||-----------------------------|---------------------------------||
  
     Bob                         Dylan's
||-----------------------------|-----------------------------||
||--1----1--1--1--1----1--1--1-|-3----3--3--3--3----3--3--3--||
||--0----0--0--0--0----0--0--0-|-2----2--2--2--2----2--2--2--||
||--2----2--2--2--2----2--2--2-|-0----0--0--0--0----0--0--0--||
||--3----3--3--3--3----3--3--3-|-0----0--0--0--0----0--0--0--||
||-----------------------------|-----------------------------||      

    Beard
||-----------------|--------------------|----------------------|----------------------|----------------------------------||
||-----------------|---------------3--3-|-1----1--1----1--1--1-|-1----1--1----1--1--1-|-1----1--1----1--1--1-------------||
||.----------------|---------------0--0-|-0----0--0----0--0--0-|-0----0--0----0--0--0-|-0----0--0----0--0--0-------------||
||.-0--------------|-0----------0--0--0-|-2----2--2----2--2--2-|-4----4--4----4--4--4-|-2----2--2----2--2--2--0h2---0----||
||--2----0--2----3-|------2-----2--2--2-|-3----3--3----3--3--3-|-3----3--3----3--3--3-|-3----3--3----3--3--3-----------3-||
||--3--------------|---------3--3--3--3-|----------------------|----------------------|----------------------------------||

||-------------------------|----------------------|--------------------|---------------------------||
||-----3--3--------3--3--3-|------3--3------------|--1----1--1--1------|----3--3--3--3--3--3-------||
||-----0--0--------0--0--0-|------0--0------------|--0----0--0--0------|----2--2--2--2--2--2------.||
||--0--0--0--------0--0--0-|-0----0--0------------|--2----2--2--2------|----0--0--0--0--0--0------.||
||-----------2-----2--2--2-|------------3--2--0h2-|--3----3--3--3--0h2-|-0--0--0--0--0--0--0-------||
||--------------3--3--3--3-|----------------------|--------------------|----------------------0h2--||
                                                   1st ending______________________________________|

||--------------------|------------------------|--------------------|------------------|------------||
||--1----1--1--1------|----3--3--3--3--3-------|--1----1--1--1------|-3--3--3--3-------|------------||
||.-0----0--0--0------|----2--2--2--2--2------.|--0----0--0--0------|-2--2--2--2-------|------------||
||.-2----2--2--2------|----0--0--0--0--0------.|--2----2--2--2------|-0--0--0--0-------|--0---------||
||--3----3--3--3--0h2-|-0--0--0--0--0--0--0h2--|--3----3--3--3--0h2-|-0--0--0--0-------|--2---------||
||--------------------|------------------------|--------------------|-------------0h2--|--3---------||
  2nd ending___________________________________|                              
===============================================================================
Suggest correction
comments
print report bad tab
2 comments total.
0 reply
runrunrun 41 wrote on October 29 2008, 12:39 am

great tab well done

0 reply
Who66 1,131 wrote on March 17 2010, 04:47 pm

outstanding tab. perfect!

guest
You may want to rate the tab now too:
select rating
Please do not post tabs as comments. Select "correction" instead!