Oops, an error
Loading. Please wait.

Cant Stand It Tab

version 2
version 2

Whole song

  • This includes some of the guitar riffs throughout ... Show more
34 views 3 this week
no commentswrite comment
1 2 3 4 5
3 more votes to show rating
add to favorites
launch autoscroll
font size
0
reset
how to read this tab
guitar tuner
Autoscroll
slow
fast
+/-
esc
set tempo
stop
Help us to improve Ultimate-Guitar.com Take our survey!
×
Author
Difficulty
Tuning
intermediate
D A D G B E
About this tab version
This includes some of the guitar riffs throughout the song as opposed to chords. It's also in Drop D. Was this info helpful? Yes No
[Intro]

e|-------------------|-----------0-------|-----------0-------|-------------------|
B|-------------------|-----3---3---------|-3---3---3---------|-------------------|
G|-7/9/11------------|---0---0---------0-|---4---4-----------|-------------------|
D|-x-x-x--11---9---7-|-------------------|-------------------|-7-7-7-7-7-7-------|
A|-5/7/9--x----x---x-|-5-----------------|-------------------|-7-7-7-7-7-7-------|
D|--------11---9---7-|-5-----------------|-------------------|-7-7-7-7-7-7-/12\--|

e|-------------------|-------------------|-------------------|-------------------|
B|-------------------|-------------------|-------------------|-------------------|
G|-------------------|-------------------|-------------------|-------------------|
D|------0--------0---|------0--------0---|------0--------0---|------0--------0---|
A|-------------------|-------------------|-------------------|-------------------|
D|-0-0-0-0-/5-5-5-5\-|-0-0-0-0-/5-5-5-5\-|-0-0-0-0-/5-5-5-5\-|-0-0-0-0-/5-5-5-5\-|
PM     .        .          .        .          .        .          .        .

[Verse]

e|-------------------------------------------------------------------------------|
B|-------------------------------------------------------------------------------|
G|-------------------------------------------------------------------------------|
D|-5/6-7-7-------------5/6-7-7-------------5/6-7-7-------------5/6-7-7-----------|
A|-3/4-5-5---7p6-5-5---3/4-5-5---7p6-5-5---3/4-5-5---7p6-5-5---3/4-5-5---7p6-5-5-|
D|-----------7p6-5-5-------------7p6-5-5-------------7p6-5-5-------------7p6-5-5-|

[Chorus]

e|-----------------|
B|-----------------|
G|-----------------|
D|-----------------|
A|-0---------------|
D|-0---5---4---2---|

e|-------------------|-----------0-------|-----------------|-----------------|
B|-------------------|-----3---3---------|-----------------|-----------------|
G|-7/9/11------------|---0---0---------0-|-6/7/9-----------|-----------------|
D|-x-x-x--11---------|-------------------|-------9---7---4-|-4-4-4-4-4-4-4-4-|
A|-5/7/9--x----------|-5-----------------|-4/5/7-x---x---x-|-4-4-4-4-4-4-4-4-|
D|--------11---------|-5-----------------|-------9---7---4-|-0-0-0-0-0-0-0-0-|

e|-------------------|-----------0-------|-----------------|-----------------|-----------------|
B|-------------------|-----3---3---------|-----------------|-----------------|-----------------|
G|-7/9/11------------|---0---0-----------|-----------------|-----------------|-----------------|
D|-x-x-x--11---9---7-|-------------------|-5-5-5-5-5-5-5-5-|-7-7-7-7-7-7-7-7-|-7-7-7-7-7-7-7-7-|
A|-5/7/9--x----x---x-|-5-----------------|-5-5-5-5-5-5-5-5-|-7-7-7-7-7-7-7-7-|-7-7-7-7-7-7-7-7-|
D|--------11---9---7-|-5-----------------|-5-5-5-5-5-5-5-5-|-7-7-7-7-7-7-7-7-|-7-7-7-7-7-7-7-7-|

[Bridge]

e|-------------------------------------------------------------------------------|
B|-------------------------------------------------------------------------------|
G|-------------------------------------------------------------------------------|
D|-------------------------------------------------------------------------------|
A|-5p4-3-3---7p6-5-5---5p4-3-3---7p6-5-5---5p4-3-3---7p6-5-5---5p4-3-3---7p6-5-5-|
D|-5p4-3-3---7p6-5-5---5p4-3-3---7p6-5-5---5p4-3-3---7p6-5-5---5p4-3-3---7p6-5-5-|

That's all I got folks. There was another tab, but the main riff was missing so I went and tried it.

************************************

| x   Dead note
| p   Pull-off
| /   Slide up
| \   Slide down

************************************
Suggest correction
Give kudos to tab author, rate the tab!
1 2 3 4 5
comments
print report bad tab
guest
You may want to rate the tab now too:
select rating
Wanna post a correction for this tab? Suggest correction