Oops, an error
Loading. Please wait.

Either Way Tab

20,169 views 39 this week
3 commentsread comments
1 2 3 4 5
accurate
x 4
add to favorites
launch autoscroll
font size
0
reset
how to read this tab
guitar tuner
Autoscroll
slow
fast
+/-
esc
set tempo
stop
Help us to improve Ultimate-Guitar.com Take our survey!
×
Author
Difficulty
intermediate
------------------------------------------------------------------
                  EITHER WAY (SOLO) - Wilco
------------------------------------------------------------------

Tabbed by:REOFlashFire


1:42

e|-------0-----0------0-----0------------10\9----12---------------|
B|--1/2-----3------5-----8-----10~~~~----------------10~~~--------|
G|----------------------------------------------------------------|
D|----------------------------------------------------------------|
A|----------------------------------------------------------------|
E|----------------------------------------------------------------|

e|------------12-12-----14/15~~~~~---------------12-12-----14/15--|
B|--10/11/12---------12---------------10/11/12---------12---------|
G|----------------------------------------------------------------|
D|----------------------------------------------------------------|
A|----------------------------------------------------------------|
E|----------------------------------------------------------------|

e|--15-12-14-12---------------------------------------------------|
B|--------------15-12-10------------------------------------------|
G|-----------------------12-11-9---------------------------------|
D|--------------------------------12-11-9-11-12~~--11-12~~-------|
A|----------------------------------------------------------------|
E|----------------------------------------------------------------|

e|--------------------10---------------9----5--5/7----7-7-----9---|
B|-----------------12----14\12-10-----10----7--7/8----8-8-----10--|
G|--------11-12/14------------------------------------------------|
D|--11/12---------------------------------------------------------|
A|----------------------------------------------------------------|
E|----------------------------------------------------------------|

e|--10\-9/10-------10\-9/10------10-10-------12-------14\13/14----|
B|--12\11/12-------12\11/12------12-12-------14-------15\14/15----|
G|----------------------------------------------------------------|
D|----------------------------------------------------------------|
A|----------------------------------------------------------------|
E|----------------------------------------------------------------|

e|--15\14/15----17\-----10----------------------------------------|
B|--17\16/17----21\----(14)--13--11--10--11p10--------6-----------|
G|---------------------------------------------12--7h8--8p7-5-----|
D|----------------------------------------------------------------|
A|----------------------------------------------------------------|
E|----------------------------------------------------------------|

e|----------------------------------------------------------------|
B|----------------------------------------------------------------|
G|----------------------------------------------------------------|
D|--8--7--5--4~~~~~~~~~-------------------------------------------|
A|--------------(0)~~~~-------------------------------------------|
E|----------------------------------------------------------------|


| /  slide up
| \  slide down
| h  hammer-on
| p  pull-off
| ~  vibrato
| +  harmonic
| x  Mute note
===================================================================
Suggest correction
What's this?
You can suggest a correction to this tab. Community and Mods will review your correction and vote to approve or reject it.
comments
print report bad tab
3 comments total.
+1 reply
Kegan 134 wrote on February 18 2008, 08:07 pm

it sounds great.
thanks.

0 reply
hrvoje 52 wrote on June 28 2008, 08:53 am

one of the best solos i have heard for a long time.that fast part it doesnt seames to sound right...?all other is very good

0 reply
Kegan 134 wrote on July 25 2008, 04:05 am

I do agree about the fast part.
Maybe it's just the speed, but I can't get it quite right.

guest
You may want to rate the tab now too:
select rating
Please do not post tabs as comments. Select "correction" instead!