Oops, an error
Loading. Please wait.

I Must Be High Bass Tab

709 views 3 this week
no commentswrite comment
1 2 3 4 5
please rate
add to favorites
launch autoscroll
font size
0
reset
guitar tuner
Autoscroll
slow
fast
+/-
esc
set tempo
stop
Help us to improve Ultimate-Guitar.com Take our survey!
×
Author
Difficulty
VERSE:
       A               A7
||---------------------2-1----|-------2---2---------|
||----------------2-4---------|---------1----1------|
||-----0------4---------------|---------------------|
||-----------------------------|--------------------|

                                E
---2-------------------|----------------------------|
--------2--------------|----------------------------|
-------------0----R*---|----------------------------|
-----------------------|-----0----2----4----R-------|

R* = quarter-note rest


Second variation after the vocal line "I must be high"
        A                       A7
|----------------------2-1----|---------2---2------------|
|-----------------2-4---------|-----------1----1---------|
|-----0-------4---------------|--------------------------|
|-----------------------------|--------------------------|

                                B
-----2----------------|------------------|
----------2-----------|------------------|
--------------0----R--|------2-2222222---|
----------------------|------------------|



Instrumental Break:
    A                              A7
||-------------------------------|-1------------1------------|
||-------2-2-4-2------2-2-4-2----|----2-2-4-2----2-2-4-2-----|
||--0---------------0------------|---------------------------|
||-------------------------------|---------------------------|

    F#                          B
|----------------------------|-------------------------||
|----------------------------|-------------------------||
|------2-2-4-2-----2-2-4-2---|--2----0-2-0-2-3-----0---||
|--2-------------2-----------|-------------------------||
Suggest correction
Give kudos to tab author, rate the tab!
1 2 3 4 5
comments
print report bad tab
guest
You may want to rate the tab now too:
select rating
Please do not post tabs as comments. Select "correction" instead!