Oops, an error
Loading. Please wait.

Im The Man Who Loves You Tab

version 2
version 2

Whole song

24,182 views 24 this week
1 commentread comment
1 2 3 4 5
x 4
add to favorites
launch autoscroll
font size
0
reset
how to read this tab
guitar tuner
Autoscroll
slow
fast
+/-
esc
set tempo
stop
Help us to improve Ultimate-Guitar.com Take our survey!
×
Author
Difficulty
Tabbers playing skills
intermediate
advanced
-------------------------------------------------------------------------------
               I'm The Man Who Loves You (Live Version)- Wilco
-------------------------------------------------------------------------------
Tabbed by: 67SG

Alright, fairly easy song, with a lot of pretty bad tabs out there. This is the live 
(solo instead of trumpets). Jeff plays it with a capo, but I'm so nice I tabbed it without 
capo.

e|------------|--------------|-------------|---------|
B|------------|--------------|-------------|---------|
G|------------|--------------|-------------|---------| x 1
D|------------|--------------|-------------|----3-3--|
A|------------|--------------|-------------|----3-3--|
E|-1/13~~~~~~~|~~~~~~~~~~~~~~|~~~~~~~~~~~~~|-13\1-1--|
   Slow slide, Jeff holds till feedback peaks or three measures

e|------------|--------|
B|------------|--------|
G|------------|--------| x 2
D|------------|----3-3-|
A|------------|----3-3-|
E|-1/13~~~~~~~|-13\1-1-|

Then they do a little jam in F. It's pretty much impossible to tab, since they   
this part. But here's one idea:
e|-------------3-|
B|-------------3-|
G|----2-----2--3-| Listen to the song live to get the idea, but play a
D|-3--3--3--3----| couple measures like that.
A|-3--3--3--3----|
E|-1-----1-------|

Then a part to finish the quick jam:
e|---------|------------------|
B|---------|------------------|
G|-1h3-1---|-1-1-3br3br3br3-3-|
D|-------3-|------------------|
A|---------|------------------|
E|---------|------------------|

Now the main riff (slight variations sometimes like playing on the B and G instead of D 
G, then changing the key a bit)
e|---------|----------|
B|-----10--|----------|
G|-----10--|-10-8-5\2-|
D|-----10--|-10-8-6\2-|
A|-8-8-----|----------|
E|---------|----------|

For the verses, play the chords detailed at the bottom.
After Chorus (Interlude)
e|------------------------|-------------12-12p10----|
B|-10--12--10--12b(14)r12-|-10--12--10-----------12-|
G|------------------------|-------------------------|
D|------------------------|-------------------------|
A|------------------------|-------------------------|
E|-------------------------|------------------------|

Then go through the next verse and chorus then the solo starts with this:
e|----------------------------------|
B|----------------------------------|
G|-7b7b7b7b7b7b7b7b7b7b7b7b7b7b7b7b-| For the most part, Jeff starts playing
D|------------------------------------| near the seventh fret, then works his
A|------------------------------------| way down to play in the first mode F
E|------------------------------------| major scale. So go ahead and improvise
                                      away! After a while go back to the Bb
                                      and C, then go into the first verse
                                      again.

And that's everything. Thank god there's a good tab for this now.

F (A-string barre chord)
All I can see is black and white and white and pink with blades of blue that
Lay between the words I think on a page that I was meaning to send to

Bb
You I couldn't tell if it bring my heart
The way I wanted when I started writing this letter to you
(Main riff)

C
If I could you know I would just hold your hand and you'd understand

Bb
I'm the man who loves you


F
All I can be is a busy sea of spinning wheels and hands that feel and
Stones that throw and feet that run but come back home and

Bb
Make no difference ever known, they make no difference ever known to me
(Main riff)

C
And if I could you know I would just hold your hand and you'd understand

Bb
I'm the man who loves you

F
All I can see is black and white and white and pink with blades of blue that
Lay between the words I think on a page that I was meaning to send to

Bb
You I couldn't tell if it bring my heart
The way I wanted when I started writing this letter to you

C
If I could you know I would just hold your hand and you'd understand

G
If I could you know I would just hold your hand and you'd understand

Bb
If I could you know I would just hold your hand and you'd understand

Bb
I'm the man who loves you
I'm the man who loves you
I'm the man who loves you
Second solo/outro, same as first, but throw in some feedback towards the end.

| /  slide up
| \  slide down
| h  hammer-on
| p  pull-off
| ~  vibrato
| +  harmonic
| x  Mute note
===============================================================================
Suggest correction
comments
print report bad tab
1 comment total.
0 reply
zugunlew 10 Jul 10, 2014 09:05 PM

Lack of accuracy.

guest
You may want to rate the tab now too:
select rating
Wanna post a correction for this tab? Suggest correction