Oops, an error
Loading. Please wait.

Impossible Germany Tab

version 1
version 1

Solo

Whole song

Interactive

48,580 views 39 this week
6 commentsread comments
1 2 3 4 5
accurate
x 9
add to favorites
launch autoscroll
font size
0
reset
how to read this tab
guitar tuner
Tab Pro tools
  • play this tab
  • loop segment
  • change instrument
  • show fretboard
  • metronome
×
Best way to learn
"Impossible Germany"
Autoscroll
slow
fast
+/-
esc
set tempo
stop
Contributor
Difficulty
intermediate
This is the solo from 2:45 to 4:07, before the mood of the solo changes and the two 
guitar parts enter.

E|----------------------------------------------------------------|
B|--10h12~~~~~~~~----15p12~~~~~s8~~~~~~---------------------------|
G|------------------------------------------------4h5h4~~~~~~~----|
D|----------------------------------------------------------------|
A|----------------------------------------------------------------|
E|----------------------------------------------------------------|

E|-------------------------10-7h10s12~~~~~~~---------15h19~~~~~---|
B|-------10h12~~~~~~----------------------------------------------|
G|----------------------------------------------------------------|
D|----------------------------------------------------------------|
A|----------------------------------------------------------------|
E|----------------------------------------------------------------|

E|----------------------------------------------------------------|
B|------19p17p15--------------------------------------------------|
G|--------------16b(17)b16~~~~~~-----------4b(5)b4~~~~~~----------|
D|----------------------------------------------------------------|
A|----------------------------------------------------------------|
E|----------------------------------------------------------------|

E|--------------------2----3---------6s7~~~~~~~-------------------|
B|----------2--0--2---0----0---------3s4~~~~~~~---10p8------------|
G|----------0--0--0-----------------------------------9~~-9s------|
D|--------------------0----2--------------------------------------|
A|----------------------------------------------------------------|
E|----------------------------------------------------------------|

E|------------------------7-----------------10-7------------------|
B|--------------------------8--------------------8~~~~~~~~~~------|
G|----------------------------9~~~~~~~~~--------------------------|
D|----------------------------------------------------------------|
A|----------------------------------------------------------------|
E|----------------------------------------------------------------|

E|----10---7h10p7-------------10--7h10p7--------------------------|
B|----------------8~~~~~~~~--------------8~~~~--------------------|
G|----------------------------------------------------------------|
D|----------------------------------------------------------------|
A|----------------------------------------------------------------|
E|----------------------------------------------------------------|

E|--------12---8h12p8---------------------------------------------|
B|--------------------10~~~~~-----------7h8p7---------------------|
G|----------------------------------5-9-------9-7-----------------|
D|--------------------------------7---------------9-7-5-5---------|
A|---------------------------------------------------------7------|
E|----------------------------------------------------------------|

E|----------------------------------------------------------------|
B|--------7h8p7p5h7~~~p5h7~~~~p5h7~~~p5h7~~~~p5s3h5-3p0-----------|
G|-----------------------------------------------------2~~p0------|
D|----------------------------------------------------------2-----|
A|----------------------------------------------------------------|
E|----------------------------------------------------------------|

E|--------------------7-12---10p7-8p7-----------------------------|
B|----------------7-8-----------------10-8p7h8p7------------------|
G|------------7-9--------------------------------9-7---7----------|
D|------5-7-9----------------------------------------9---10-9-7s5-|
A|----7-----------------------------------------------------------|
E|----------------------------------------------------------------|

E|--------------------------------------------------------7s12~~~-|
B|---------------------------------------------------8-10---------|
G|----------------------------------------------9-11--------------|
D|-----5-7s9~~~~~~-----4s5~~~s2s4s2~~~~~--------------------------|
A|-7-7--------------------------------0~~~~~~~--------------------|
E|----------------------------------------------------------------|

E|---7s8--7--------------------------------------------------7----|
B|----------10-8----------------------------------------8-10------|
G|------------------7h9-9-7--4----4--4-4-4-5-7-9--9-9-9-----------|
D|-----------------------------5----------------------------------|
A|----------------------------------------------------------------|
E|----------------------------------------------------------------|

E|---7s8-8-7---------------------------12----------------12-12h15-12-15--s19--17~~-|
B|----------10-8--------------------------15-13-12-13-15---------------------------|
G|------------------7h9-9-7--4-----------------------------------------------------|
D|-----------------------------5---------------------------------------------------|
A|---------------------------------------------------------------------------------|
E|---------------------------------------------------------------------------------|


Song: Impossible Germany
Artist: Wilco
Solo: Nels Cline
Tabbed by: Miles Robinson
comments
print report bad tab
6 comments total. Showing first comments.
0 reply
eelsid wrote on September 24 2007, 11:37 pm

Here's my first shot at a tab but from watching Tweedy play I believe his part goes like this after the solo (not so sure about the 9h12, maybe 9-12):

At 4:00
E|---------------------------------------------------------------------------------|
B|---------------------------------------------------------------------------------|
G|--9---------9-----------9-----------------9---------------9h12-9-12-16-14--------|
D|----12-10-----12-10-9-----12-10-9-10-12-----12-10-9-10-12------------------------|
A|---------------------------------------------------------------------------------|
E|---------------------------------------------------------------------------------|4x

At 4:35
E|---------------------------------------------------------------------------------|
B|---------------------------------------------------------------------------------|
G|--9-----------------9---------------9---9---------------9h12-9-12-16-14----------|
D|----12-10-9-10-12-----12-10-9-10-12-------12-10-9-10-12--------------------------|
A|---------------------------------------------------------------------------------|
E|---------------------------------------------------------------------------------|2x

At 4:53
E|---------------------------------------------------------------------------------|
B|---------------------------------------------------------------------------------|
G|--9---------9-----------9-----------------9---------------9h12-9-12-16-14--------|
D|----12-10-----12-10-9-----12-10-9-10-12-----12-10-9-10-12------------------------|
A|---------------------------------------------------------------------------------|
E|---------------------------------------------------------------------------------|2x

0 reply
SgtScruffy wrote on October 1 2007, 09:30 pm

Excellent tab! I've been waiting for this awesome solo for a long time, I just think that it doesn't sound quite right at 3:13, that's my only suggestion :)

+4 reply
EC is God wrote on May 20 2008, 09:38 pm

Great Tab.
At 3:13
E|---------------2----3---|
B|-----3--0--3---0----0---|
G|-----0--0--0------------|
D|---------------0----2---|
A|------------------------|
E|------------------------|

I want to post or [tab]
guest
You may want to rate the tab now too:
select rating
Please do not post tabs as comments. Select "correction" instead!