Oops, an error
Loading. Please wait.

Impossible Germany Tab

version 1
version 1

Whole song

Interactive

67,050 views 69 this week
2 commentsread comments
1 2 3 4 5
x 5
add to favorites
launch autoscroll
font size
0
reset
how to read this tab
guitar tuner
Autoscroll
slow
fast
+/-
esc
set tempo
stop
Help us to improve Ultimate-Guitar.com Take our survey!
×
Author
Difficulty
novice
Artist: Wilco
Song: Impossible Germany
Ablum: Sky Blue Sky
Tuning: Standard
Tabbed by: utkanos

This song is 3 (or more) guitar parts blended. I will refer to them as Right, Left and
for lack of better nomenclature. This is a fantastic song and I didn't see a tab for it
I decided to write one. It's not perfect but I'm hoping it inspires someone to fix it up 
make it more complete. Having 3 or 4 guitar parts makes it rather tough to tab out but
it is anyway. Enjoy.

[Intro]
*Center*
(repeat from 0:01 - 0:19)
E|----------------------------------------------------------------|
B|------------------------------------12-12-12-12-12--------------|
G|-----12---14-14-14-14-14-12------12----------------12-----------|
D|--14-------------------------14---------------------------------|
A|----------------------------------------------------------------|
E|----------------------------------------------------------------|

*Right*
(begin at 0:06 and go until 0:19) FIGURE 1
E|----------------------------------------------------------------|
B|---------10--12-------------------------------------------------|
G|---12-12--------------------------------------------------------|
D|-----------------------16-16-17-14------------------------------|
A|----------------------------------------------------------------|
E|----------------------------------------------------------------|
end with:
E|----------------------|
B|----------------------|
G|----------------------|
D|---16-16-17-/14-12-14-|
A|----------------------|
E|----------------------|

*Left*
(repeat from 0:01 - 0:19) FIGURE 2
E|---------12------------10---------------------------------------|
B|------13-------------12-----------------------------------------|
G|---14--------------12-------------------------------------------|
D|----------------------------------------------------------------|
A|----------------------------------------------------------------|
E|----------------------------------------------------------------|

[Verse]
There is FAR too much going on here to make much sense of it.. start with this riff
E|----------------------------------------------------------------|
B|----------------------------------------------------------------|
G|----------------------------------------------------------------|
D|---12(x8)-10(x8)-9(x8)-7(x)-9(x16)-10(x8)-9(x8)-----------------|
A|----------------------------------------------------------------|
E|----------------------------------------------------------------|

Then use these chords and pick the notes out.. always variable, write your own.
E|--------------------------------------------------|
B|--------------------------------------------------|
G|------5----2------5----2---------------2-------5--|
D|------5----2------5----2------5--------2-------5--|
A|--3--------0----3------0------5----2---0-----3----|
E|----------------------------3------0--------------|

Use FIGURE 1 and FIGURE 2 in here as well as endings to the verse

Common fills... play around with them:
E|----------------------------|
B|----------------------------|
G|-------12-------------------|
D|---/14----------10-9-7------|
A|---------------------- 10--7|
E|----------------------------|

Solo riff has been tabbed out.. write your own though :)

************************************

| /  Slide up

************************************
Suggest correction
comments
print report bad tab
2 comments total.
0 reply
GunsnRosesown 51 Mar 31, 2009 01:25 PM

The intro goes from the very beginning:
E-----12-12-12-12-12--------10-10-10-10-10-----|
B---13--------------13----12--------------12---|
G-14--------------------12---------------------|
D----------------------------------------------|
A----------------------------------------------|
E----------------------------------------------|

0 reply
marcelocfrancaherbert 10 Oct 15, 2016 03:26 AM

Impossible Germany

guest
You may want to rate the tab now too:
select rating
Wanna post a correction for this tab? Suggest correction