Oops, an error
Loading. Please wait.

Jesus Etc Tab

version 1
version 1

Whole song

Interactive

34,844 views 6 this week
2 commentsread comments
1 2 3 4 5
x 3
add to favorites
launch autoscroll
font size
0
reset
how to read this tab
guitar tuner
Autoscroll
slow
fast
+/-
esc
set tempo
stop
Help us to improve Ultimate-Guitar.com Take our survey!
×
Author
Capo
5th fret
-------------------------------------------------------------------------------
                         JESUS, ETC. - Wilco
-------------------------------------------------------------------------------
Tabbed by: Ben Aitken
Email: ben.j.aitken@gmail.com

As played on "Kicking Television: Live in Chicago"
Tuning: Standard, capo on 5

-|-----0---------0--0----0---------------0---------0-------0-------------|
-|--1--1---------1--0----0-------0--1----1---------1--0----0---------0---|
-|--2--2----0h2--2--0----0-------0--2----2----0h2--2--0----0---------0---|
-|--2--2---------2--2----2--0h2--2--2----2---------2--2----2----0h2--2---|
-|--0--0------------2----2----------0----0------------2----2---------2---|
-|-----------------------------------------------------------------------|
  Intro 2x

-|---------0----0----0--0----0------------0----0----0--1----1----1--0----0----0----1----1-----|
-|--0h1----1----1----1--0----0---------0--1----1----1--1----1----1--1----1----1----3----3-----|
-|--0h2----2----2----2--0----0---------0--2----2----2--2----2----2--0----0----0----2----2-----|
-|--0h2----2----2----2--2----2----0h2--2--2----2----2--3----3----3--2----2----2----0----0-----|
-|--0-------------------------------------0----0----0--3----3----3--3----3----3---------------|
-|-----------------------------------------------------1----1-------3----3--------------------|
  Verse 2x

-|--3----3------------------|---------------------------------------------|
-|--0----0----x--x-------0--|-----------------------------------1---------|
-|--0----0----x--x-------0--|-------0--x--0-------0----------2--2--2------|
-|--0----0----x--x--0h2--2--|-------0--x--0-------0-------------------3---|
-|--2----2------------------|----------------0h2--------------------------|
-|--3----3------------------|--3----3----------------0--1-----------------|
  1st ending                 2nd ending

-|------------------------------------------------------------------------------|------|--------|
-|--1----1----1----1----1----1--0--1----1----1----1--1----1--1--1--1----1--1----|-0----|--0-----|
-|--0----0----0----0----2----2-----1----1----2----2--2----2--2--2--0----0--0----|-0----|--0-----|
-|--2----2----0----0----2----2-----2----2----3----3--3----3--3--3--2----2--2----|-0----|--2-----|
-|--3----3----2----2----0----0-----2----2----x----x--x----x--x--x--3----3--3----|-2----|--2-----|
-|-------------------------------------------1----1--1----1--1--1---------------|-3----|--------|
  Chorus 2x                                  T    T  T    T  T  T                1st    
ending

Verse, Chorus with second ending both times

-|--1----1----1--0----0------------1----1----1--0---------1----1-----|
-|--1----1----1--1----1---------1--1----1----1--1----0----1----1-----|
-|--2----2----2--0----0---------0--2----2----2--0----0----2----2-----|
-|--3----3----3--2----2----0h2-----3----3----3--2----0----3----3-----|
-|--3----3----3--3----3------------3----3----3--3----2----3----3-----|
-|--1----1----1--------------------1----1----1-------3----1----1-----|
  Bridge

Chorus 1x with first ending
Verse
Chorus
Bridge

-|------------------------------------------------------------------------------------------|
-|--1----1----1----1----1----1--0--1----1----1----1--1----1--1--1---------------------------|
-|--0----0----0----0----2----2-----1----1----2----2--2----2--2--2--------0-----------0------|
-|--2----2----0----0----2----2-----2----2----3----3--3----3--3--3-----2-----0-----0-----0---|
-|--3----3----2----2----0----0-----2----2----x----x--x----x--x--x--3-----------2------------|
-|-------------------------------------------1----1--1----1--1--1---------------------------|
  Last chorus                                T    T  T    T  T  T

-|-----------------------------------------------------------------------------------------|
-|--1----1----1--1--1--------------------------1----1----1--1--1---------------------------|
-|--2----2----2--2--2--------0-----------0-----2----2----2--2--2--------0-----------0------|
-|--3----3----3--3--3-----2-----2-----0-----0--3----3----3--3--3-----2-----2-----0-----0---|
-|--x----x----x--x--x--3-----------2-----------x----x----x--x--x--3-----------2------------|
-|--1----1----1--1--1--------------------------1----1----1--1--1---------------------------|


-|-----------------------------------------------------------0-----------------|
-|--1----1----1--1--1--0----0----0--0--0--1----1----1--1--1--1-----------------|
-|--2----2----2--2--2--0----0----0--0--0--2----2----2--2--2--0-----------------|
-|--3----3----3--3--3--2----2----2--2--2--3----3----3--3--3--2-----------------|
-|--x----x----x--x--x--2----2----2--2--2--x----x----x--x--x--3-----------------|
-|--1----1----1--1--1--0----0----0--0--0--1----1----1--1--1--------------------|


| /  slide up
| \  slide down
| h  hammer-on
| p  pull-off
| ~  vibrato
| +  harmonic
| x  Mute note
===============================================================================
Suggest correction
Give kudos to tab author, rate the tab!
1 2 3 4 5
comments
print report bad tab
2 comments total.
0 reply
Beanoit 837 Jun 19, 2007 09:16 PM

fourth chord in chorus, after Am, should be

|x 3 2 1 1 x|, E+, instead of |x 2 2 1 1 x|

and in the last chorus, play 5-4-3-5 strings instead of 5-4-3-4

0 reply
Beanoit 837 Jun 19, 2007 09:20 PM

tab:
|--------------------------|
|--------------------------|
|--------0-----------0-----|
|-----2-----------0--------|
|--3--------3--2---------2-|
|--------------------------|

guest
You may want to rate the tab now too:
select rating
Wanna post a correction for this tab? Suggest correction