Oops, an error
Loading. Please wait.

More Like The Moon chords

version 2
version 2

Whole song

by Wilco
284 views 6 this week
no commentswrite comment
1 2 3 4 5
3 more votes to show rating
add to favorites
×
Save as Personal and add changes to this tab that will be seen only by you. Learn more ›
×
You can save this tab as Personal to edit and correct it or add notes. All changes will be seen only by you. Learn more »
launch autoscroll
font size
0
reset
transpose
0
reset
display chords
guitar tuner
edit
Autoscroll
slow
fast
+/-
esc
set tempo
stop
Strumming
There is no strumming pattern for this song yet. and get +5 IQ
-------------------------------------------------------------------------------
                    MORE LIKE THE MOON - Wilco
-------------------------------------------------------------------------------
Tabbed by: jvwald

If you find this tab helpful, check out the other Wilco/Tweedy tabs I've posted.

Capo III

C riff
e|------0-----0-----0------|
B|--------1-----1-----1----|
G|----0-----0-----0-----0--|
D|----2--------------------|
A|--3----------------------|
E|-------------------------|

F riff
e|------1-----1-----1------|
B|--------1-----1-----1----|
G|----------2-----2-----2--|
D|----3--------------------|
A|----3--------------------|
E|--1----------------------|

G riff
e|----------3--|
B|--------3----|
G|----0--------|
D|------0------|
A|--2----------|
E|--3----------|

intro
C riff x2

F riff x2
I see you in the morning
        G riff       C riff x2
Wearing only one shoe
F riff x2
I say, I see you've lost something
G riff             C riff x2
What're you gonna do?
F riff x2
You say but no, I found one
                               G riff x2
There's another out there for you

riff 1
e|---------------------------|
B|---------------------------|
G|--0-----0------------------|
D|--2-2-2-2-2-2---3-----0----|
A|--3-3-3-3-3-3-3-3-3-2-2-2--|
E|--------------1-----3------|

C riff x2

solo (feel free to go and tab this)
F   G   C   F    G   C   F   G

riff 1

C riff x2

F riff x2
I see us all as customers
            G riff      C riff x2
Holding no purchase so far
F riff x2
Collapsing galaxies
                G riff   C riff x2
Feathered with falling stars
F riff x2
I see us all as something
                          G riff x2
But nothing like we truly are

riff 1
Why don't you come to me now more like you are

C riff 2
riff 1

solo 2 (again, tons to tab out here)
F   G   C   F   G   C   F   G

riff 1

F riff x2
I know we should be grateful
               G riff   C riff x2
Everything is falling apart
F riff x2
Everything is breaking
        G riff   C riff x2
And it lifts my heart
F riff x2
To see you as an angel
                        G riff x2
As some ghostly work of art

riff 1
Why don't you come to me now, know who you are

C riff x2

riff 1

C riff

riff 1

************************************

| /   slide up
| \   slide down
| h   hammer-on
| p   pull-off
| ~   vibrato
| +   harmonic
| x   Mute note
| b   Bend
| pb  Pre-bend
| br  Bend release
| pbr Pre-bend release
| brb Bend release bend

************************************

            
            
Suggest correction
Creating personal tab
Creating personal tab
You can edit any tab online and save it as your Personal.

You can edit, replace or remove any tab part or add personal notes – all changes will be seen only by you.

Personal tabs can be accessed anytime from any device, even offline.
Learn more »
Give kudos to tab author, rate the tab!
1 2 3 4 5
comments
print report bad tab
guest
You may want to rate the tab now too:
select rating
Wanna post a correction for this tab? Suggest correction