Oops, an error
Loading. Please wait.

Pot Kettle Black Tab

14,460 views 15 this week
no commentswrite comment
1 2 3 4 5
x 3
add to favorites
launch autoscroll
font size
0
reset
how to read this tab
guitar tuner
Autoscroll
slow
fast
+/-
esc
set tempo
stop
Help us to improve Ultimate-Guitar.com Take our survey!
×
Author
Wilco - Pot Kettle Black, I am Trying to Break Your Heart version

Tuning: DADF#AD

Feedback guitar over intro (in stndrd. tuning) - Bend the 5th fret of the B-string and 
off to the 3rd fret, with feedback

Main Riff

|---------------------------------------------------------------------|
|---------------------------------------------------------------------|
|---------------------------------------------------------------------|
|---------------------------------------------------------------------|
|--9---9---9--9--9--10---9---9--9---9--9--9--9--9---9----0--0---------|
|--0---0---0--0--0---0---5---5--5---5--5--5--5--5---5----0--0---------|


Verse Riff

|----------------------------------------|
|----------------------------------------|
|----------------------------------------|
|----------------------------------------|
|--0--0--0------0---0---5--5--5----------|
|--0--0--0------0---0---5--5--5----------|

Pre-Chorus

|----------------------------------------------------------------------|
|----------------------------------------------------------------------|
|----------------------------------------------------------------------|
|-------2-------2-------2-------2-------2-------2--------2--------2----|
|---2-------2-------2-------2-------2-------2-------2--------2---------|
|---2-------2-------2-------2-------2-------2-------2--------2---------|

|----------------------------------------------------------------------|
|----------------------------------------------------------------------|
|----------------------------------------------------------------------|
|-------0-------0-------0-------0-------0-------0--------0--------0----|
|---5-------5-------5-------5-------5-------5-------5--------5---------|
|---5-------5-------5-------5-------5-------5-------5--------5---------|

"Bridge"

|-----------------------------|
|-----------------------------|
|-----------------------------|
|-----------------------------|
|--8--8--8--8--7--7--7--7-----|
|--5--5--5--5--5--5--5--5-----|

Chorus 1

|-------------------------------------------------------------------|
|---5---------4---------5---------2------5---5---5--5/7-----4-------|
|---0---------0--------------------------0---0---0- 0-------0-------|
|---0-------------------5---------2------0---0---0--0---------------|
|---5---------4---------5---------2------5---5---5--5/7-----4-------|
|---0---------4---------5---------2------0---0---0--0-------4-------|

|-------------------------------------------------------------------|
|-------------------------------------------------------------------|
|-------------------------------------------------------------------|
|-------------------------------------------------------------------|
|---2---2---2---2---5---5---5---5---2---2---2---2---5---5---5---5---|
|---2---2---2---2---5---5---5---5---2---2---2---2---5---5---5---5---|

Outro

|---------------------------------------------------------|
|-12------4------5------12------12------4------5----------|
|-12------4------5------12------12------4------5------6---|
|--0------0------0-------0-------0------0------0------0---|
|----------------5-----------------------------5----------|
|-12------4------5------12------12------4------5------4---|

|--------------------------------------------------------|
|--------------------------------------------------------|
|--------------------------------------------------------|
|---2---2---2---2---2---2---2---2---5---5---5---5---7\---|
|---2---2---2---2---2---2---2---2---5---5---5---5---7\---|
|---2---2---2---2---2---2---2---2---5---5---5---5---7\---|

|-----------------------------------------------------|
|-----------------------------------------------------|
|-----------------------------------------------------|
|-----------------------------------------------------|
|---9---9---9--9---10--9--------9---9---9--9--10------|
|---0---0---0--0----0--5--------0---0---0--0---0------|

|----------------------------------------------------|
|----------------------------------------------------|
|----------------------------------------------------|
|----------------------------------------------------|
|---8--8--8--8--8--8--8--8--7--7--7--7--7--7--7--7---|
|---5--5--5--5--5--5--5--5--5--5--5--5--5--5--5--5---|

|---------------------------|
|---12------4-----5---------|
|---12------4-----5-----6---|
|----0------0-----0-----0---|
|-----------------5-----5---|
|---12------4-----5---------|

End

|------------------------------------------------------------------------|
|------------------------------------------------------------------------|
|------------------------------------------------------------------------|
|----------2---4---0---2---4-------------2---4---0---2---4---2-----------|
|------------------------------------------------------------------------|
|---0-------------------------------0----------------------------0-------|

__________________________________________________________________

Intro - Main Riff 4x

Verse - Verse Riff 4x

Crazy rides rockets, waves a magic wand
Empty out your pockets, words without a song

Pre-chorus - 1x

I myself have found a real rival in myself

Main riff 1x

Pre-chorus - 1x

I am hoping for the rearrival of my health

Main riff - 2x

Verse - Verse riff 4X

Sleeping eye sockets, baby suck your thumb
I'll keep you in my locket, a string I never strum

Pre-chorus - 1x

It's become so obvious, you are so oblivious to yourself

"Bridge" riff 1x

Chorus 1

I'm tied in a knot but I'm not gonna get caught calling a pot kettle black
Every song's a comeback, every moment's a little bit later

Main riff - 2x

Verse

Lazy locomotives, wherever you may roll
I think you have no motive, I know you have no home

Pre-chorus - 1x

It's become so obvious that you are so oblivious to yourself

Main riff 1x
"Bridge" 1x

Chorus

I'm tied in a knot, but I'm not gonna get caught calling a pot kettle black
Every song's a comeback, every moment's a little bit later

Outro

Every moment's a little bit later, every moment's a little bit later, every moment's a 
bit later

I'm tied in a knot, but I'm not gonna get caught calling a pot kettle black, I'm not 
get caught calling a pot kettle black
Suggest correction
Give kudos to tab author, rate the tab!
1 2 3 4 5
comments
print report bad tab
guest
You may want to rate the tab now too:
select rating
Wanna post a correction for this tab? Suggest correction