Oops, an error
Loading. Please wait.

Albatross Chords

5,148 views 9 this week
3 commentsread comments
1 2 3 4 5
x 4
add to favorites
launch autoscroll
font size
0
reset
transpose
0
reset
display chords
guitar tuner
×
Best way to learn
"Albatross"
Autoscroll
slow
fast
+/-
esc
set tempo
stop
Author
Difficulty
  follow
novice
[whole song play three chords]
Am C Em

Albatross, albatross
How callous the ocean you cross

I, I blame you, I blame you
For all of those things I've been through
Don't feel bad, not a pang
It's my neck around which you hang
Like a chain or a tag
I flinch and you fall through the cracks
To the sea and all it bears
The secrets that I should've shared
They drowned then and there
Yeah drowned then and there
Yeah drowned then and there

I, I blame you, I blame you
For all of those things I've been through
Don't feel bad, not a pang
It's my neck around which you hang
Like a chain or a tag
I flinch and you fall through the cracks
To the sea and all it bears
The secrets that I should've shared
Drowned then and there
Yeah drowned then and there
Yeah drowned then and there

Albatross, albatross
Which way to turn when we're lost 
Suggest correction
comments
print report bad tab
3 comments total.
0 reply
RikkyC 155 Dec 04, 2011 10:40 PM

The riff through the song goes like this:

e|-----------------------------------------------------------------------|
B|--12-12-12-12-5-5-5-5-7-7-7-7-2-2-0-0-0-0-0-0-0-0-0-0-0-0-0-0-0-0-0-0--|
G|-----------------------------------------------------------------------|
D|-----------------------------------------------------------------------|
A|-----------------------------------------------------------------------|
E|-----------------------------------------------------------------------|

e|-------------------------------------------------------------------------------------------|
B|--12-12-12-12-5-5-5-5-7-7-7-7-14-14-12-12-12-12-12-12-12-12-12-12-12-12-12-12-12-12-12-12--|
G|-------------------------------------------------------------------------------------------|
D|-------------------------------------------------------------------------------------------|
A|-------------------------------------------------------------------------------------------|
E|-------------------------------------------------------------------------------------------|

+1 reply
RikkyC 155 Dec 04, 2011 10:43 PM

Fuck, I'm an idiot. Ignore the above:

e|-----------------------------------------------------------------------|
B|-----------------------------------------------------------------------|
G|--12-12-12-12-7-7-7-7-9-9-9-9-2-2-0-0-0-0-0-0-0-0-0-0-0-0-0-0-0-0-0-0--|
D|-----------------------------------------------------------------------|
A|-----------------------------------------------------------------------|
E|-----------------------------------------------------------------------|

e|-------------------------------------------------------------------------------------------|
B|-------------------------------------------------------------------------------------------|
G|--12-12-12-12-7-7-7-7-9-9-9-9-14-14-12-12-12-12-12-12-12-12-12-12-12-12-12-12-12-12-12-12--|
D|-------------------------------------------------------------------------------------------|
A|-------------------------------------------------------------------------------------------|
E|-------------------------------------------------------------------------------------------|

0 reply
ivanvidalivan 10 Nov 20, 2013 05:30 AM

I think the riff it's kinda like this:

e|-----------------------------------------------------------------------|
B|-----------------------------------------------------------------------|
G|--12-12-12-12-7-7-7-7-9-9-9-9------------------------------------------|
D|------------------------------7(~)5-5-5-5-5-5-5-5-5-5-5-5-5-5-5-5-5-5--|
A|-----------------------------------------------------------------------|
E|-----------------------------------------------------------------------|

e|-------------------------------------------------------------------------------------------|
B|------------------------------10(~)--------------------------------------------------------|
G|--12-12-12-12-7-7-7-7-9-9-9-9-------12-12-12-12-12-12-12-12-12-12-12-12-12-12-12-12-12-12--|
D|-------------------------------------------------------------------------------------------|
A|-------------------------------------------------------------------------------------------|
E|-------------------------------------------------------------------------------------------|

guest
You may want to rate the tab now too:
select rating
Wanna post a correction for this tab? Suggest correction