Oops, an error
Loading. Please wait.

All The Kings Men Bass Tab

version 1
version 1

Whole song

2,380 views 3 this week
2 commentsread comments
1 2 3 4 5
accurate
x 3
add to favorites
launch autoscroll
font size
0
reset
guitar tuner
Autoscroll
slow
fast
+/-
esc
set tempo
stop
Help us to improve Ultimate-Guitar.com Take our survey!
×
Difficulty
novice
Intro/chorus
G-------------------------------------------------------|
D-------------------------------------------------------|
A-10-1010-10-1010-10-1010-10-1010-------—--—------—-----|
E---------------------------------6-66-6-66-6-66-6-66---|

G-------------------------------------------------------|
D-------------------------------------------------------|
A—3-33-3-33-3-33-3-33-----------------------------------|
E---------------------6-66-6-66-6-66-6-66---------------|

verse
G----10----14---10----14-1515------------1515------------|
D--8----12----8----12---------12--15--12------12--15—12--|
A--------------------------------------------------------|
E--------------------------------------------------------|

first tab managed to get it by watching there acoustic consert
ENJOY
Suggest correction
Give kudos to tab author, rate the tab!
1 2 3 4 5
comments
print report bad tab
2 comments total.
0 reply
imsmallcam 10 wrote on November 22 2009, 03:45 am

really good :)

0 reply
Midnight Barber 62 wrote on December 1 2009, 09:58 am

Spot on, this is how its played, but just an alternative I prefer is
G----------14---10----14-1515------------1515------------|
D----15--12---8----12---------12--15--12------12--15—12--|
A-13-----------------------------------------------------|
E--------------------------------------------------------|

i reckon its a bit easier

guest
You may want to rate the tab now too:
select rating
Wanna post a correction for this tab? Suggest correction