Oops, an error
Loading. Please wait.

Bed Of Nails Acoustic Tab

version 1
version 1

Whole song

5,153 views 3 this week
no commentswrite comment
1 2 3 4 5
accurate
x 4
add to favorites
launch autoscroll
font size
0
reset
how to read this tab
guitar tuner
Tab Pro tools
  • play this tab
  • loop segment
  • change instrument
  • show fretboard
  • metronome
×
Best way to learn
"Bed Of Nails Acoustic"
Autoscroll
slow
fast
+/-
esc
set tempo
stop
Difficulty
Capo
intermediate
4th fret
Tabbed by asparrowgoose

Here's a tab for the acoustic version of Bed Of Nails. You can hear it aaaaaat 3:10 
here: http://www.youtube.com/watch?v=aDlnbZ2_aSU. I've probably tabbed it really badly but 
let's have a go anyway...as far as I can tell this is 100% accurate...enjoy!

Capo 4, standard tuning, all relative to the capo and all that jazz...

Part 1:
e|--0-------0-------0-------0-----------------------|
B|----6-------6-------6-------6---------------------|
G|------7-------7-------7-------7-------------------|
D|--------7-------7-------7-------7-----------------|
A|--------------------------------------------------|
E|--------------------------------------------------|

e|--5--------5-------5------5-----------------------|
B|----6--------6-------6------6---------------------|
G|------5--------5-------5------5-------------------|
D|--------7--------7-------7------7-----------------|
A|--------------------------------------------------|
E|--------------------------------------------------|

I would lie anywhere with you...
e|--0-------0-------0-------0-----------------------|
B|----6-------6-------6-------6---------------------|
G|------7-------7-------7-------7-------------------|
D|--------7-------7-------7-------7-----------------|
A|--------------------------------------------------|
E|--------------------------------------------------|
Any old bed of nails would do etc....
e|--5--------5-------5------5-----------------------|
B|----6--------6-------6------6---------------------|
G|------5--------5-------5------5-------------------|
D|--------7--------7-------7------7-----------------|
A|--------------------------------------------------|
E|--------------------------------------------------|
 Part 2:oh, ophelia...
e|--0-------0-------0-------0-----------------------|
B|----1-------1-------1-------1---------------------|
G|------2-------2-------2-------2-------------------|
D|--------2-------2-------2-------2-----------------|
A|--------------------------------------------------|
E|--------------------------------------------------|
I feel ya full...
E|----0---0---0---0---0---0---0---0-----------------|
e|--------------------------------------------------|
B|--7---7---7---7---7---7---7---7-------------------|
G|--------------------------------------------------|
D|--------------------------------------------------|
A|--------------------------------------------------|
E|--------------------------------------------------|
oh, ophelia...
e|--0-------0-------0-------0-----------------------|
B|----1-------1-------1-------1---------------------|
G|------2-------2-------2-------2-------------------|
D|--------2-------2-------2-------2-----------------|
A|--------------------------------------------------|
E|--------------------------------------------------|
I feel ya full...
E|----0---0---0---0---0---0---0---0---0---0---0---0-|
e|--------------------------------------------------|
B|--7---7---7---7---7---7---7---7---7---7---7---7---|
G|--------------------------------------------------|
D|--------------------------------------------------|
A|--------------------------------------------------|
E|--------------------------------------------------|

repeat part 1 and 2 until...

e|--5-------5-------5-------5-----------------------|
B|----3-------3-------3-------3---------------------|
G|------3-------3-------3-------3-------------------|X2
D|--------5-------5-------5-------5-----------------|
A|--------------------------------------------------|
E|--------------------------------------------------|

e|--5-------5------5-------5------------------------|
B|----3-------3------3-------3----------------------|
G|------3-------3------3-------3--------------------|X2
D|--------0-------0------0-------0------------------|
A|--------------------------------------------------|
E|--------------------------------------------------|

e|--0-------0-------0-------0-----------------------|
B|----1-------1-------1-------1---------------------|
G|------2-------2-------2-------2-------------------|x2
D|--------2-------2-------2-------2-----------------|
A|--------------------------------------------------|
E|--------------------------------------------------|

e|--3-------3-------3-------3-----------------------|
B|----3-------3-------3-------3---------------------|
G|------4-------4-------4-------4-------------------|
D|--------0-------0-------0-------0-----------------|
A|--------------------------------------------------|
E|--------------------------------------------------|

Oh I love Frankenstein in nature...
e|--5-------5-------5-------5-----------------------|
B|----3-------3-------3-------3---------------------|
G|------3-------3-------3-------3-------------------|X2
D|--------5-------5-------5-------5-----------------|
A|--------------------------------------------------|
E|--------------------------------------------------|

Electrified...
e|--5-------5------5-------5------------------------|
B|----3-------3------3-------3----------------------|
G|------3-------3------3-------3--------------------|X2
D|--------0-------0------0-------0------------------|
A|--------------------------------------------------|
E|--------------------------------------------------|

It's alive...
e|--0-------0-------0-------0-----------------------|
B|----1-------1-------1-------1---------------------|
G|------2-------2-------2-------2-------------------|x2
D|--------2-------2-------2-------2-----------------|
A|--------------------------------------------------|
E|--------------------------------------------------|

e|--3-------3-------3-------3-----------------------|
B|----3-------3-------3-------3---------------------|
G|------4-------4-------4-------4-------------------|
D|--------0-------0-------0-------0-----------------|
A|--------------------------------------------------|
E|--------------------------------------------------|

Then repeat part 1 up until "I'd lay all night in a lanky-limbed heap" and end with:

e|-0---------------|
B|-----------------|
G|------6----------|
D|-----------------|
A|-------------7---|
E|-----------------|
comments
print report bad tab
I want to post or [tab]
guest
You may want to rate the tab now too:
select rating
Please do not post tabs as comments. Select "correction" instead!