Oops, an error
Loading. Please wait.

His Grinning Skull Bass Tab

819 views 1 this week
no commentswrite comment
1 2 3 4 5
3 more votes to show rating
add to favorites
launch autoscroll
font size
0
reset
guitar tuner
Autoscroll
slow
fast
+/-
esc
set tempo
stop
Help us to improve Ultimate-Guitar.com Take our survey!
×
Difficulty
novice
Intro
G]-------------------------------------------------|
D]-------------------------------------------------|
A]-------------------------3-3-3-3-3-3-3-3-3-5-5-5-| X2
E]-1-1-1-1-1-1-1-1-1-1-1-1-------------------------|

G]----------------------------------------------|
D]----------------------------------------------|
A]-------------------------3-3-3-3-3-3-3-3-3~~~-|
E]-1-1-1-1-1-1-1-1-1-1-1-1----------------------|

Verse
G]-------------------------------------------------|
D]-------------------------------------------------|
A]-------------------------3-3-3-3-3-3-3-3-3-5-5-5-|X6
E]-1-1-1-1-1-1-1-1-1-1-1-1-------------------------|

Chorus
G]-----------------|
D]-----------------|
A]------------3~~~-|
E]-11-11-11-11-----|

Verse
G]-------------------------------------------------|
D]-------------------------------------------------|
A]-------------------------3-3-3-3-3-3-3-3-3-5-5-5-|X6
E]-1-1-1-1-1-1-1-1-1-1-1-1-------------------------|

Chorus
G]-----------------|
D]-----------------|
A]------------3~~~-|X2
E]-11-11-11-11-----|

Verse
G]-------------------------------------------------|
D]-------------------------------------------------|
A]-------------------------3-3-3-3-3-3-3-3-3-5-5-5-|X2
E]-1-1-1-1-1-1-1-1-1-1-1-1-------------------------|


Chorus
G]--------------------------|
D]--------------------------|
A]------------3~~~----------|X4
E]-11-11-11-11--------------|         Not Eleven its One

Outro
G]------------------|
D]------------------|
A]-----3~~~----3----|~~  (Pause)
E]-1~~~----1~~~-----|

G]------------------------------------------|
D]------------------------------------------|
A]-5~5~----X13            Finish on A]-5~~~-|
E]-----1~1~---------------------------------|
Suggest correction
Give kudos to tab author, rate the tab!
1 2 3 4 5
comments
print report bad tab
guest
You may want to rate the tab now too:
select rating
Wanna post a correction for this tab? Suggest correction