Oops, an error
Loading. Please wait.

Hooting And Howling Tab

version 1
version 1

Whole song

Interactive

3,650 views 6 this week
1 commentread comment
1 2 3 4 5
accurate
x 2
add to favorites
launch autoscroll
font size
0
reset
how to read this tab
guitar tuner
Tab Pro tools
  • play this tab
  • loop segment
  • change instrument
  • show fretboard
  • metronome
Autoscroll
slow
fast
+/-
esc
set tempo
stop
Contributor
Difficulty
novice
STANDARD TUNING


|G5   |G5   |A5   |A5   |       throughout the song


Riff:

 |----------------------------|    |--------------------------------|
 |------7-----7-----------7---|    |------7-----7------------7------|
 |---9-----9--------7--9------|x3  |---9-----9---------7--9-----9---|
 |--------------9-------------|    |----------------9---------------|
 |----------------------------|    |--------------------------------|
 |----------------------------|    |--------------------------------|
comments
We did not receive enough feedback on this tab! Please rate:
print report bad tab
1 2 3 4 5
1 comment total.
+1 reply
RikkyC wrote on December 11 2011, 05:49 pm

I could swear that the riff is actually like this:


e|--------------------------------------------------------------|
B|---15-17--15-17-------15-17-----15-17--15-17-------15-17-15---|
G|----------------14-17------------------------14-17------------|
D|--------------------------------------------------------------|
A|--------------------------------------------------------------|
E|--------------------------------------------------------------|

I want to post or [tab]
guest
You may want to rate the tab now too:
select rating
Please do not post tabs as comments. Select "correction" instead!