Oops, an error
Loading. Please wait.

Hooting And Howling Tab

version 1
version 1

Whole song

Interactive

3,761 views 1 this week
2 commentsread comments
1 2 3 4 5
x 3
add to favorites
launch autoscroll
font size
0
reset
how to read this tab
guitar tuner
Autoscroll
slow
fast
+/-
esc
set tempo
stop
Help us to improve Ultimate-Guitar.com Take our survey!
×
Author
Difficulty
novice
STANDARD TUNING


|G5   |G5   |A5   |A5   |       throughout the song


Riff:

 |----------------------------|    |--------------------------------|
 |------7-----7-----------7---|    |------7-----7------------7------|
 |---9-----9--------7--9------|x3  |---9-----9---------7--9-----9---|
 |--------------9-------------|    |----------------9---------------|
 |----------------------------|    |--------------------------------|
 |----------------------------|    |--------------------------------|
Suggest correction
Give kudos to tab author, rate the tab!
1 2 3 4 5
comments
print report bad tab
2 comments total.
+1 reply
RikkyC 155 Dec 11, 2011 05:49 PM

I could swear that the riff is actually like this:


e|--------------------------------------------------------------|
B|---15-17--15-17-------15-17-----15-17--15-17-------15-17-15---|
G|----------------14-17------------------------14-17------------|
D|--------------------------------------------------------------|
A|--------------------------------------------------------------|
E|--------------------------------------------------------------|

0 reply
f94a 26 Sep 08, 2016 11:27 AM

I'd say it could be played like
e|----10---12------10---12-------------10----12---10------------|
B|---------------------------10--13-----------------------------|
G|--------------------------------------------------------------|
D|--------------------------------------------------------------|
A|--------------------------------------------------------------|
E|--------------------------------------------------------------|

guest
You may want to rate the tab now too:
select rating
Wanna post a correction for this tab? Suggest correction