Oops, an error
Loading. Please wait.

This Is Our Lot Bass Tab

version 1
version 1

Whole song

2,422 views 1 this week
3 commentsread comments
1 2 3 4 5
x 4
add to favorites
launch autoscroll
font size
0
reset
guitar tuner
Autoscroll
slow
fast
+/-
esc
set tempo
stop
Help us to improve Ultimate-Guitar.com Take our survey!
×
Main riff

G|-------------14-12--|   
D|-12-12-12-12--------|    
A|-----—--—------—----|    
E|--------------------| x4 

G|--------------------|   
D|--------------------|    
A|-7-7-7-7-—-7--—-----|    
E|---------8----------| x4 

G|-------------------------|   
D|-11-11-11-11-14-11-11-11-|    
A|-----—--—------—---------|    
E|-------------------------| x4 

G|--------------------|   
D|--------------------|    
A|-7-7-7-7--—0-7-—----|    
E|--------------------| x2
Suggest correction
comments
print report bad tab
3 comments total.
0 reply
harrythemay 31 Jul 02, 2012 10:38 AM

I think it's


G|--------------------|
D|--------------------|
A|-7-7-7-7-—-7--—-----|
E|---------7----------|

0 reply
Nathan_Bowlly 10 Mar 20, 2013 02:47 PM

G|-------------13-11--|
D|-11-11-11-11--------|
A|-----—--—------—----|
E|--------------------| x4

G|--------------------|
D|---------9----------|
A|-7-7-7-7-—-7--—-----|
E|--------------------| x4

0 reply
Nathan_Bowlly 10 Mar 20, 2013 02:48 PM

G|-------------13-11--|
D|-11-11-11-11--------|
A|-----—--—------—----|
E|--------------------| x4

G|--------------------|
D|---------9----------|
A|-7-7-7-7-—-7--—-----|
E|--------------------| x4

guest
You may want to rate the tab now too:
select rating
Wanna post a correction for this tab? Suggest correction