Oops, an error
Loading. Please wait.

This Is Our Lot Bass Tab

version 2
version 2

Whole song

641 views 1 this week
no commentswrite comment
1 2 3 4 5
please rate
add to favorites
launch autoscroll
font size
0
reset
guitar tuner
Autoscroll
slow
fast
+/-
esc
set tempo
stop
Help us to improve Ultimate-Guitar.com Take our survey!
×
reckon i got the main riff down, the amount each note is played might not be tabbed 
but it's an easy song to figure out the rhythm to :)

G|--------------------------------|
D|---------7-5--------------------|
A|-5-5-5-5------------------------|
E|--------------------------------|          x4

G|---------------------------|
D|--3-3-3-3---3--------------|
A|----------3----------------|
E|---------------------------| x4

G|---------------------------------------|
D|---------------------------------------|
A|--5-5-5-5-8-5-5-5-5-5-5-8-5-5-5--------|
E|---------------------------------------|

G|----------------------|
D|----------------------|
A|-3-3-3-3-3-3-3-3-3----|
E|----------------------|
Suggest correction
Give kudos to tab author, rate the tab!
1 2 3 4 5
comments
print report bad tab
guest
You may want to rate the tab now too:
select rating
Please do not post tabs as comments. Select "correction" instead!