Oops, an error
Loading. Please wait.

This Is Our Lot Bass Tab

version 3
version 3

Whole song

644 views 1 this week
no commentswrite comment
1 2 3 4 5
x 3
add to favorites
launch autoscroll
font size
0
reset
guitar tuner
Autoscroll
slow
fast
+/-
esc
set tempo
stop
Help us to improve Ultimate-Guitar.com Take our survey!
×
the other tab was slightly wrong this is 100% correct as seen on KEXP.

G|-------------13-11--|   
D|-11-11-11-11--------|    
A|--------------------|   
E|--------------------| x4 

G|--------------------|   
D|--------------------|    
A|-7-7-7-7---7--------|    
E|---------7----------| x4 

G|-------------------------|   
D|-11-11-11-11-14-11-11-11-|    
A|-------------------------|    
E|-------------------------| x4 

G|--------------------|   
D|--------------------|    
A|-7-7-7-7---0-7------|    
E|--------------------| x2
Suggest correction
Give kudos to tab author, rate the tab!
1 2 3 4 5
comments
print report bad tab
guest
You may want to rate the tab now too:
select rating
Wanna post a correction for this tab? Suggest correction