Oops, an error
Loading. Please wait.

Two Dancers I Tab

4,019 views 1 this week
no commentswrite comment
1 2 3 4 5
excellent!
x 3
add to favorites
launch autoscroll
font size
0
reset
how to read this tab
guitar tuner
Tab Pro tools
  • play this tab
  • loop segment
  • change instrument
  • show fretboard
  • metronome
×
Best way to learn
"Two Dancers I"
Autoscroll
slow
fast
+/-
esc
set tempo
stop
Contributor
Difficulty
Capo
novice
6th fret
LOVERRRRLY SONG.

both guitars capo on 6, or at least thats how i play it
all tablature written relative to capo

Guitar 1 - Benny

Intro/Break
e|----------------------|
B|----------------------|
G|4~-------4-2~---------|
D|----4~----4-----4~----|
A|-----------2~---------|
E|3~--------------------|

Verse - Sits out for the first part

Play this from "Apart, apart, and dancing on"
e|--------------------------------|
B|-----------0---------------0----|
G|-2-2-2-2-2--2-2--2-2-2-2-2--2-2-|
D|4-4-4-4-4-4--4--4-4-4-4-4-4--4--|
A|--------------------------------|
E|--------------------------------|

Change to this on "They dragged me by my ankles.."
e|----------------------------------------------------------------|
B|-----------0---------------0---------------2---------------2----|
G|-2-2-2-2-2--2-2--2-2-2-2-2--2-2--4-4-4-4-4--4-4--4-4-4-4-4--4-4-|
D|4-4-4-4-4-4--4--4-4-4-4-4-4--4--4-4-4-4-4-4--4--4-4-4-4-4-4--4--|
A|----------------------------------------------------------------|
E|----------------------------------------------------------------|

Plays that part until the break

Guitar 2 - Tom Fleming...legend...

Intro - Nothing

Verse - Sits out the first part

Play this from "Apart, apart" until the break
e|-0--0-----0--0--------------------------|
B|--2--2~----2--2~---3p2-3p2~---3p2-3p2~--|
G|2--2-----2--2-----2---2------2---2------|
D|----------------------------------------|
A|----------------------------------------|
E|----------------------------------------|

Break - Tom hits the strings with a drumstick just over the pickups
but you can just as easily strum in the same rhythm

These are the chords he uses, the rhythm isnt hard to pick up :)
e|---------|
B|2-----2--|
G|4-----2--|
D|4-----4--|
A|---------|
E|---------|

Thats about it, should be pretty much correct, if not corrections are welcome

ENJOY :)
comments
We did not receive enough feedback on this tab! Please rate:
print report bad tab
1 2 3 4 5
I want to post or [tab]
guest
You may want to rate the tab now too:
select rating
Please do not post tabs as comments. Select "correction" instead!