Oops, an error
Loading. Please wait.

Were Gonna Rock Were Gonna Roll chords

28 views 1 this week
no commentswrite comment
1 2 3 4 5
3 more votes to show rating
add to favorites
×
Save as Personal and add changes to this tab that will be seen only by you. Learn more ›
×
You can save this tab as Personal to edit and correct it or add notes. All changes will be seen only by you. Learn more »
launch autoscroll
font size
0
reset
transpose
0
reset
simplify chords
display chords
guitar tuner
edit
Autoscroll
slow
fast
+/-
esc
set tempo
stop
Strumming
There is no strumming pattern for this song yet. and get +5 IQ
---------------------------------------------------------------------------
        We’re Gonna Rock, We're Gonna Roll – Wild Bill Moore
---------------------------------------------------------------------------
Tabbed by: maguri
Tuning: Standard

Wild Bill Moore
We’re Gonna Rock, We're Gonna Roll (1947)
(William Moore)

One of the earliest Rock'n'Roll records by the American R&B and jazz 
saxophone player Wild Bill Moore. He later played on Marvin Gaye's 
album "What's Going On" (1971), notably the solo on "Mercy Mercy Me".

---------------------------------------------------------------------------

Basic riffs
  C                                   F7
  1 + 2 + 3 + 4 +  1 + 2 + 3 + 4 +    1 + 2 + 3 + 4 +  1 + 2 + 3 + 4 +
e|----------------|----------------| |----------------|----------------|
B|----------------|----------------| |----------------|----------------|
G|------------2---|5---2-----------| |------------0---|1---0-----------|
D|----2---5-------|--------5---2---| |--------3-------|--------3---0---|
A|3---------------|----------------| |----0-----------|----------------|
E|----------------|----------------| |1---------------|----------------|
  Dm               G
  1 + 2 + 3 + 4 +  1 + 2 + 3 + 4 +
e|----------------|----------------|
B|----------------|----------------|
G|----------------|----------------|
D|0---2---3---4---|5---3---2---0---|
A|----------------|----------------|
E|----------------|----------------|

---------------------------------------------------------------------------

[Intro]
| N.C. | % | % | % |
 (saxophone)
| F | % | C | % |
 (sax)   (piano)
| Dm | G | C | % |
 Ah, yes, Mr. piano player, go on, get it!


[Solo] piano
| C | % | % | % |
| F | % | C | % |
| Dm | G | C | % |
          And all night, all night, all night long ...


[Chorus]
            C
We’re gonna rock, we’re gonna roll
            C
We’re gonna rock, we’re gonna roll
           F7
We’re gonna rock, we’re gonna roll
            C
We’re gonna rock, we’re gonna roll
            Dm
We’re gonna rock, we’re gonna roll
           G
We’re gonna rock, we’re gonna roll
            C
We’re gonna rock, we’re gonna roll
            C
We’re gonna rock, we’re gonna roll


[Solo] sax
| C | % | % | % |
| F | % | C | % |
| Dm | G | C | % |

| C | % | % | % |
| F | % | C | % |
| Dm | G | C | % |

| C | % | % | % |
| F | % | C | % |
| Dm | G | C | % |

| C | % | % | % |
| F | % | C | % |
| Dm | G | C | % |

| C | % | % | % |
| F | % | C | % |
| Dm | G | C | % |

| C | % | % | % |
| F | % | C | % |
| Dm | G | C | % |

[Coda]
| C | % | C6
Suggest correction
Creating personal tab
Creating personal tab
You can edit any tab online and save it as your Personal.

You can edit, replace or remove any tab part or add personal notes – all changes will be seen only by you.

Personal tabs can be accessed anytime from any device, even offline.
Learn more »
Give kudos to tab author, rate the tab!
1 2 3 4 5
comments
print report bad tab
guest
You may want to rate the tab now too:
select rating
Wanna post a correction for this tab? Suggest correction