Oops, an error
Loading. Please wait.
We have an official Play That Funky Music tab made by UG professional guitarists. Check out the tab »
×
116,470 views 57 this week
8 commentsread comments
1 2 3 4 5
x 38
add to favorites
launch autoscroll
font size
0
reset
how to read this tab
guitar tuner
backing track
0:00
0:00
Autoscroll
slow
fast
+/-
esc
set tempo
stop
[Intro]

e|---------------------|
B|---------------------|
G|-------9-7-9-----7-9-|
D|-------------7-9-----|
A|---7-7---------------|
E|---------------------|

e|---------------------|
B|---------------------|
G|-------9-7-9-----7-9-|
D|-------------7-9-----|
A|---7-7---------------|
E|---------------------|


e|---------------------|
B|---------------------|
G|-------9-7-9-----7-9-|
D|-------------7-9-----|
A|---7-7---------------|
E|---------------------|

e|---------------------|
B|---------------------|
G|-------9-7-9-----7-9-|
D|-------------7-9-----|
A|---7-7---------------|
E|---------------------|

The tab is played four times, during the whole intro.
Then, it goes on through out the first verse. But it stops right before the chorus.
Suggest correction
comments
print report bad tab
8 comments total. Showing first comments.
-1 reply
Tubbylardman 10 Sep 19, 2006 10:45 PM

Just so you know... theres a bass playing this all the way through... it never stops

0 reply
midgetwitbass 10 Oct 25, 2006 06:40 PM

hay wats sup dude this is a nice tab gj keep them commin

0 reply
SIXXBIRD 10 Aug 02, 2008 03:59 PM

awsome i was playing this wrong.stupid bassmasta.com giving me wrong tabs

guest
Wanna post a correction for this tab? Suggest correction