Oops, an error
Loading. Please wait.
We have an official Play That Funky Music tab made by UG professional guitarists. Check out the tab »
×
4,934 views 1 this week
1 commentread comment
1 2 3 4 5
1 last vote to show rating
add to favorites
×
Save as Personal and add changes to this tab that will be seen only by you. Learn more ›
×
You can save this tab as Personal to edit and correct it or add notes. All changes will be seen only by you. Learn more »
launch autoscroll
font size
0
reset
guitar tuner
backing track
0:00
0:00
edit
Autoscroll
slow
fast
+/-
esc
set tempo
stop
Difficulty
This is my first tab, so please if you find anything that may make this tab sound 
contact me at Ajcheyenne2@aol.com. Enjoy! :D


Intro (x4)
G|------9-7-9-----7h9--|
D|------------7h9------|
A|--7-7----------------|
E|---------------------|

Verse(x's as much as needed)
G|---------------------|
D|---------------------|
A|----5-7-----5h7------|
E|--0-----5h7----------|

(Pop this whole part)
G|-7-7-7-7-7-9-9-7-9-9-7-9-9-7-9-9-7-9-9-7-9-9-7-9-9-9|
D|----------------------------------------------------|
A|----------------------------------------------------|
E|----------------------------------------------------|

Pre-Chorus(x1)   Chorus(x3)               (x1)
G|----------|  G|--------------------|  G|----------------------|
D|----------|  D|5-5------3h5--------|  D|--5-5--------8-8------|
A|----------|  A|-----3h5------------|  A|----------------------|
E|--0-1-2-3-|  E|-------------3------|  E|-------3-5-6----------|

Lay Down The Boogie And Play That Funky Music 'Til You Die.
G|--9-7---7------------------------|
D|------9---9-7-9-9-7-9-7-5--------|
A|--------------------------7-5----|
E|------------------------------0--|

I'm sure that you'll be able to figure out when to play what, but again, if you have 
please contact me.
Suggest correction
Creating personal tab
Creating personal tab
You can edit any tab online and save it as your Personal.

You can edit, replace or remove any tab part or add personal notes – all changes will be seen only by you.

Personal tabs can be accessed anytime from any device, even offline.
Learn more »
Give kudos to tab author, rate the tab!
1 2 3 4 5
comments
print report bad tab
1 comment total.
0 reply
ledmetarvana 10 Mar 26, 2010 08:47 PM

too complicated .. you aint funky dawg .

guest
Wanna post a correction for this tab? Suggest correction