Oops, an error
Loading. Please wait.
We have an official Play That Funky Music tab made by UG professional guitarists. Check out the tab »
×
3,970 views 1 this week
1 commentread comment
1 2 3 4 5
x 4
add to favorites
×
Save as Personal and add changes to this tab that will be seen only by you. Learn more ›
×
You can save this tab as Personal to edit and correct it or add notes. All changes will be seen only by you. Learn more »
launch autoscroll
font size
0
reset
guitar tuner
backing track
0:00
0:00
edit
Autoscroll
slow
fast
+/-
esc
set tempo
stop
Author
Bass Comes In With Drums:

G------------------------]      G--------------] Play
D------------------------]      D--------------]Before
A----5-7--------5-H7-----]      A----5-7/0-----]Break
E-0-------5-H7-----------] x19  E-0------------]


Then Play:

G---------|-------------------------------------------]
D---------|-3-5--------3-H5------3-5--------3-5-------]
A---------|------3-H5-----------------3-H5------------]
E-1-1-2-3-|-------------------3-----------------------] x5

Only Play First Part Once


Then Play The "Build":

G----------------]
D--7-7/8-8-8-----]
A----------------]
E--5-5-----------]


Then: "Lay Down That Boogy And Play That Funky Music White Boy"

G--------------------------------------------------------]
D--12/14--12----12---------------------------------------]
A------------14----14/12--12-10-12/13/12-10--------------]
E--------------------------------------------12-10--0----]

Then Repeat Entire Process From The Top


TIP: G----------]
     D----------]  In Between The Open E And 5 7 On A Use Ghost Note
     A-----5-7--]
     E--0-------]     (Slapping Pickup With Fingers)


That's It !!!...Don't Get Frustrated Take Your Time...It Took 3 Weeks Before I Could 
That Funky Music...Enjoy It

            
            
Suggest correction
Creating personal tab
Creating personal tab
You can edit any tab online and save it as your Personal.

You can edit, replace or remove any tab part or add personal notes – all changes will be seen only by you.

Personal tabs can be accessed anytime from any device, even offline.
Learn more »
comments
print report bad tab
1 comment total.
0 reply
ledmetarvana 10 Mar 26, 2010 08:46 PM

wrong.ga.wrong my friend .

guest
You may want to rate the tab now too:
select rating
Wanna post a correction for this tab? Suggest correction