Oops, an error
Loading. Please wait.

The Tale Of You And Me tab

880 views 15 this week
no commentswrite comment
1 2 3 4 5
1 last vote to show rating
add to favorites
×
Save as Personal and add changes to this tab that will be seen only by you. Learn more ›
×
You can save this tab as Personal to edit and correct it or add notes. All changes will be seen only by you. Learn more »
launch autoscroll
font size
0
reset
how to read this tab
guitar tuner
edit
Autoscroll
slow
fast
+/-
esc
set tempo
stop
Author
CAPO 5

[Verse 1]

e|---------------------------------------------------------------------------------------------|
B|---------------------------------------------------------------------------------------------|
G|---------------------------------------------------------------------------------------------|
D|--------------------0-------0---4---0---------0----------2-------2---4---2---------2---------|
A|---------------2---------2-------------2------------4---------4-------------4----------------|
E|---------------------------------------------------------------------------------------------|
Ever wonder why white clouds take flight in the middle of the night just chasing thunders tale

e|---------------------------------------------------------------------------------------------|
B|---------------------------------------------------------------------------------------------|
G|---------------------------------------------------------------------------------------------|
D|--------------------0-------0---4---0---------0----------2-------2---4---2---------2---------|
A|---------------2---------2-------------2------------4---------4-------------4----------------|
E|---------------------------------------------------------------------------------------------|
Ever wonder about you and me at the bottom of the sea while both our souls set sail

e|---------------------------------------------------------------------------------------------|
B|---------------------------------------------------------------------------------------------|
G|---------------------------------------------------------------------------------------------|
D|--------------------0-------0---4---0---------0----------2-------2---4---2---------2---------|
A|---------------2---------2-------------2------------4---------4-------------4----------------|
E|---------------------------------------------------------------------------------------------|
Ever think about me at night how I'm never too kind follow me cause you know I'll fail

e|---------------------------------------------------------------------------------------------|
B|---------------------------------------------------------------------------------------------|
G|---------------------------------------------------------------------------------------------|
D|--------------------0-------0---4---0---------0----------2-------2---4---2---------2---------|
A|---------------2---------2-------------2------------4---------4-------------4----------------|
E|---------------------------------------------------------------------------------------------|
Make you wonder bout heading home where your lovers can't roam stab your back throw you down the well

e|---------------------------------------------------------------------------------------------|
B|---------------------------------------------------------------------------------------------|
G|---------------------------------------------------------------------------------------------|
D|--------------------0-------0---4---0---------0----------2-------2---4---2---------2---------|
A|---------------2---------2-------------2------------4---------4-------------4----------------|
E|---------------------------------------------------------------------------------------------|

e|---------------------------------------------------------------------------------------------|
B|---------------------------------------------------------------------------------------------|
G|---------------------------------------------------------------------------------------------|
D|--------------------0-------0---4---0---------0----------2-------2---4---2---------2---------|
A|---------------2---------2-------------2------------4---------4-------------4----------------|
E|---------------------------------------------------------------------------------------------|


[Verse 2]

e|---------------------------------------------------------------------------------------------|
B|---------------------------------------------------------------------------------------------|
G|---------------------------------------------------------------------------------------------|
D|--------------------0-------0---4---0---------0----------2-------2---4---2---------2---------|
A|---------------2---------2-------------2------------4---------4-------------4----------------|
E|---------------------------------------------------------------------------------------------|
You ever think about both our mouths round the barrel of a gun make a fast won't feel a thing

e|---------------------------------------------------------------------------------------------|
B|---------------------------------------------------------------------------------------------|
G|---------------------------------------------------------------------------------------------|
D|--------------------0-------0---4---0---------0----------2-------2---4---2---------2---------|
A|---------------2---------2-------------2------------4---------4-------------4----------------|
E|---------------------------------------------------------------------------------------------|
Ever think about hanging out from the limbs of a tree swinging above our buried rings

e|---------------------------------------------------------------------------------------------|
B|---------------------------------------------------------------------------------------------|
G|---------------------------------------------------------------------------------------------|
D|--------------------0-------0---4---0---------0----------2-------2---4---2---------2---------|
A|---------------2---------2-------------2------------4---------4-------------4----------------|
E|---------------------------------------------------------------------------------------------|
You ever think about giving up take the pills drink the cup sleep for ever if you knew you could

e|---------------------------------------------------------------------------------------------|
B|---------------------------------------------------------------------------------------------|
G|---------------------------------------------------------------------------------------------|
D|--------------------0-------0---4---0---------0----------2-------2---4---2---------2---------|
A|---------------2---------2-------------2------------4---------4-------------4----------------|
E|---------------------------------------------------------------------------------------------|
Make me think about cutting close to the veins that hold love let it bleed out on the wood

e|---------------------------------------------------------------------------------------------|
B|--------------------------------0------------------------------------------------------------|
G|---------------------------------------------------------------------6-----------------------|
D|--------------------4-------4-------4---------4----------5-------5-------5---------5---------|
A|---------------2---------2-------------2------------4---------4-------------4----------------|
E|---------------------------------------------------------------------------------------------|

e|---------------------------------------------------------------------------------------------|
B|--------------------------------0------------------------------------------------------------|
G|---------------------------------------------------------------------6-----------------------|
D|--------------------4-------4-------4---------4----------5-------5-------5---------5---------|
A|---------------2---------2-------------2------------4---------4-------------4----------------|
E|---------------------------------------------------------------------------------------------|


[Chorus]

Em                Bm           Em             Bm
Always said we'd die together now you'll die alone
Bm           Em 
And you wonder why I burned you down
Bm           Em 
And you wonder why I burned you down
Bm           Em 
And you wonder why I burned you down
Bm           Em 
And you wonder why I burned you down
Bm           Em 
And you wonder why I burned you down
Bm           Em 
And you wonder why I burned you down
Em                Bm           Em             Bm
Always thought we'd die together know you'll die alone


[Verse 3]

e|---------------------------------------------------------------------------------------------|
B|---------------------------------------------------------------------------------------------|
G|---------------------------------------------------------------------------------------------|
D|--------------------0-------0---4---0---------0----------2-------2---4---2---------2---------|
A|---------------2---------2-------------2------------4---------4-------------4----------------|
E|---------------------------------------------------------------------------------------------|
  You're always talking about this and that singing rattle a tat taking walks down by the moon

e|---------------------------------------------------------------------------------------------|
B|---------------------------------------------------------------------------------------------|
G|---------------------------------------------------------------------------------------------|
D|--------------------0-------0---4---0---------0----------2-------2---4---2---------2---------|
A|---------------2---------2-------------2------------4---------4-------------4----------------|
E|---------------------------------------------------------------------------------------------|
  Can you think about getting old no I've ever been sold on eternity with you

e|---------------------------------------------------------------------------------------------|
B|---------------------------------------------------------------------------------------------|
G|---------------------------------------------------------------------------------------------|
D|--------------------0-------0---4---0---------0----------2-------2---4---2---------2---------|
A|---------------2---------2-------------2------------4---------4-------------4----------------|
E|---------------------------------------------------------------------------------------------|
  Mama keep your thoughts of love and things burn your house and your dreams you know I love that devil's sin

e|---------------------------------------------------------------------------------------------|
B|---------------------------------------------------------------------------------------------|
G|---------------------------------------------------------------------------------------------|
D|--------------------0-------0---4---0---------0----------2-------2---4---2---------2---------|
A|---------------2---------2-------------2------------4---------4-------------4----------------|
E|---------------------------------------------------------------------------------------------|
  Darling next time I grab your hand while we're walking by the sea know I just might throw you in

e|---------------------------------------------------------------------------------------------|
B|---------------------------------------------------------------------------------------------|
G|---------------------------------------------------------------------------------------------|
D|--------------------0-------0---4---0---------0----------2-------2---4---2---------2---------|
A|---------------2---------2-------------2------------4---------4-------------4----------------|
E|---------------------------------------------------------------------------------------------|

e|---------------------------------------------------------------------------------------------|
B|---------------------------------------------------------------------------------------------|
G|---------------------------------------------------------------------------------------------|
D|--------------------0-------0---4---0---------0----------2-------2---4---2---------2---------|
A|---------------2---------2-------------2------------4---------4-------------4----------------|
E|---------------------------------------------------------------------------------------------|


[Chorus]

Em                Bm           Em             Bm
Always said we'd die together now you'll die alone
Bm           Em 
And you wonder why I burned you down
Bm           Em 
And you wonder why I burned you down
Bm           Em 
And you wonder why I burned you down
Bm           Em 
And you wonder why I burned you down
Bm           Em 
And you wonder why I burned you down
Bm           Em 
And you wonder why I burned you down
Em                Bm           Em             Bm
Always thought we'd die together know you'll die alone
Suggest correction
Creating personal tab
Creating personal tab
You can edit any tab online and save it as your Personal.

You can edit, replace or remove any tab part or add personal notes – all changes will be seen only by you.

Personal tabs can be accessed anytime from any device, even offline.
Learn more »
Give kudos to tab author, rate the tab!
1 2 3 4 5
comments
print report bad tab
guest
You may want to rate the tab now too:
select rating
Wanna post a correction for this tab? Suggest correction