Oops, an error
Loading. Please wait.

Thunder Clatter Chords

version 3
version 3

Whole song

25 views 3 this week
no commentswrite comment
1 2 3 4 5
3 more votes to show rating
add to favorites
launch autoscroll
font size
0
reset
transpose
0
reset
display chords
guitar tuner
Autoscroll
slow
fast
+/-
esc
set tempo
stop
Help us to improve Ultimate-Guitar.com Take our survey!
×
Author
Difficulty
Capo
intermediate
4th fret
[Verse 1]

G                                    A
I see you hidden in the night I found you
Bm                                          D
I see you separate from the others.
G                              A
Bent crooked in the light around you
Bm                                     D
Bathing in the sight of the others.


[Chorus]

             G             A 
I couldn't sayyyyy  what I was thinking
           Bm
Myyyy heart shrinking
          D                    G
Two sad sparks blinking in the sun
     A
W-ait one minute 
     Bm                D
I had to listen for it
                      G       A      
It was hidden in the fall
                Bm       
Hidden in the fall
D                    G         A
Waiting on love to call
               Bm
Hidden in the fall

e|---------------------------------------------------------------------------|
B|---------------------------------------------------------------------------|
G|---18-----------------------------------18---------------------------------|
D|------20--18------20p18--------------------20--18------18h20--18h20--------|
A|--------------21b---------21--18--------------------21b--------------------|
E|---------------------------------------------------------------------------|
                                                                               (x2)
e|---------------------------------------------------------------------------|
B|---------------------------------------------------------------------------|
G|---18----------------------------------------------------------------------|
D|------20--18------20p18--------------------------18-----18-----18----------|
A|--------------21b--------21--18-----------18h21------21-----21-----21------|
E|---------------------------------------------------------------------------|


[Verse 2]

G                       A
I met you in the dead of winter 
Bm                        D
I stood stranded in the water
G                  A
Dug deeper than a crooked splinter
Bm                            D
I turned away from all the others


[Chorus]

             G             A 
I couldn't sayyyyy  what I was thinking
           Bm
Myyyy heart shrinking
          D                    G
Two sad sparks blinking in the sun
     A
W-ait one minute 
     Bm                D
I had to listen for it
                      G       A      
It was hidden in the fall
                Bm       
Hidden in the fall
D                    G         A
Waiting on love to call
               Bm
Hidden in the fall

e|---------------------------------------------------------------------------|
B|---------------------------------------------------------------------------|
G|---18-----------------------------------18---------------------------------|
D|------20--18------20p18--------------------20--18------18h20--18h20--------|
A|--------------21b---------21--18--------------------21b--------------------|
E|---------------------------------------------------------------------------|
                                                                               (x2)
e|---------------------------------------------------------------------------|
B|---------------------------------------------------------------------------|
G|---18----------------------------------------------------------------------|
D|------20--18------20p18--------------------------18-----18-----18----------|
A|--------------21b--------21--18-----------18h21------21-----21-----21------|
E|---------------------------------------------------------------------------|


[Verse 3]

G                     A
Sad hopes I'd hidden under
Bm                D
Tangled inside of me 
G                    A
You spoke like broken thunder 
Bm                      D
Deep into the centre of me.


[Chorus]

             G             A 
I couldn't sayyyyy  what I was thinking
           Bm
Myyyy heart shrinking
          D                    G
Two sad sparks blinking in the sun
     A
W-ait one minute 
     Bm                D
I had to listen for it
                      G       A      
It was hidden in the fall
                Bm       
Hidden in the fall
D                    G         A
Waiting on love to call
               Bm
Hidden in the fall

e|---------------------------------------------------------------------------|
B|---------------------------------------------------------------------------|
G|---18-----------------------------------18---------------------------------|
D|------20--18------20p18--------------------20--18------18h20--18h20--------|
A|--------------21b---------21--18--------------------21b--------------------|
E|---------------------------------------------------------------------------|
                                                                               (x2)
e|---------------------------------------------------------------------------|
B|---------------------------------------------------------------------------|
G|---18----------------------------------------------------------------------|
D|------20--18------20p18--------------------------18-----18-----18----------|
A|--------------21b--------21--18-----------18h21------21-----21-----21------|
E|---------------------------------------------------------------------------|


D                    G         A
Waiting on love to call
               Bm
Hidden in the fall


[Bridge] (x2)

G                          A
I hear it call in the center of it all 
           B                     D
You're the love of my life, the love of my life
G                      A
I hear it all in the center of my heart
           B                     D
You're the love of my life, the love of my life

G                      A
I hear it call in the center of it all 
           Bm                    D
You're the love of my life, the love of my life
 G                     A             
I hear it all in the center of my heart
           Bm                    D
You're the love of my life, the love of my life 
Suggest correction
Give kudos to tab author, rate the tab!
1 2 3 4 5
comments
print report bad tab
guest
You may want to rate the tab now too:
select rating
Wanna post a correction for this tab? Suggest correction