Oops, an error
Loading. Please wait.

Chinatown Bass Tab

1,637 views 6 this week
no commentswrite comment
1 2 3 4 5
please rate
add to favorites
launch autoscroll
font size
0
reset
guitar tuner
Autoscroll
slow
fast
+/-
esc
set tempo
stop
Help us to improve Ultimate-Guitar.com Take our survey!
×
Author
Difficulty
novice
-------------------------------------------------------------------------------
                         CHINATOWN - Wild Nothing
-------------------------------------------------------------------------------
Tabbed by: ImSimon
E-mail: tolkachovs@gmail.com

Tuning: Standard

Intro

G|---------------------------------------------------------------------------|
D|--------------------------------10-8---------------------------------------|
A|--6-6-6-6-6-6-6-6----8-8-8-8---------10------------------------------------|
E|---------------------------------------------------------------------------|

Verse

G|---------------------------------------------------------------------------|
D|--------------------------------10-8---------------------------------------|
A|--6-6-6-6-6-6-6-6----8-8-8-8---------10------------------------------------|  x2
E|---------------------------------------------------------------------------|

G|---------------------------------------------------------------------------|
D|--------------------------------8-6----------------------------------------|
A|--4-4-4-4-4-4-4-4----6-6-6-6---------8-------------------------------------|  x2
E|---------------------------------------------------------------------------|

Before chorus play only 4's and 6's notes. Like this.

G|---------------------------------------------------------------------------|
D|---------------------------------------------------------------------------|
A|--4-4-4-4-4-4-4-4----6-6-6-6-6-6-6-----------------------------------------|
E|---------------------------------------------------------------------------|


Chorus

G|------------------------------8-8-8-8--------------------------------------|
D|----------6-6-6-6-10-10-10-10---------------------------------6-6-6-6------|
A|--8-8-8-8-----------------------------4-4-4-4-6-6-6-6-8-8-8-8--------------|
E|---------------------------------------------------------------------------|

G|------------------------------8-8-8-8--------------------------------------|
D|----------6-6-6-6-10-10-10-10----------------------------------------------|
A|--8-8-8-8-----------------------------4-4-4-4-6-6-6-6-8-8-8-8-6-6-6-6------|
E|---------------------------------------------------------------------------|

===============================================================================
Suggest correction
Give kudos to tab author, rate the tab!
1 2 3 4 5
comments
print report bad tab
guest
You may want to rate the tab now too:
select rating
Please do not post tabs as comments. Select "correction" instead!