Oops, an error
Loading. Please wait.

Nocturne Bass Tab

version 1
version 1

Whole song

Interactive

3,232 views 12 this week
no commentswrite comment
1 2 3 4 5
x 3
add to favorites
launch autoscroll
font size
0
reset
guitar tuner
Autoscroll
slow
fast
+/-
esc
set tempo
stop
Help us to improve Ultimate-Guitar.com Take our survey!
×
Author
Difficulty
intermediate
-------------------------------------------------------------------------------
                         NOCTURNE - Wild Nothing
-------------------------------------------------------------------------------
Tabbed by: nOAH
E-mail: noah.harpham@yahoo.com

Tuning: Standard

Part I

G|(-------)------------------------------------------------------------------|
D|(-------)------------------------------------------------------------------|
A|(------3)--5---5-3---3-------------------------------------3-------------3-|
E|(1-3-5--)--------------5---5-3---3-1---1-1---1-1---1-1-3-5---5---5-3---3---|

G|-------------------------|
D|-------------------------|  repeat
A|-3-----------------------|
E|---3---3-1---1-1---1-1---|

Part II (oooh, you can have me)

G|--------------------------------------------------|
D|--------------------------------------------------| repeat
A|-------------5---5-5---5--------------------------|
E|-3---3-3---3-------------1---1-1---1-1---1/5-5---5|

When he stops the lyric line (ooh you can have me), the pattern below (IIa)
is played, and is repeated twice before jumping right back into Part I (the
first time this sequence occurs) and then part III the second time thru sequence

Part IIa

G|---------------------------------------------------|
D|----------------------------3---3-3---2------------|
A|-------------------3-5-3-5--------------3---3------| repeat 2X
E|-3---3-3---3-5---5----------------------------5---5|


Part III (spacey bridge where backbeat drops out)

G|-----------------------------------|
D|-----------------------------------|
A|-----------5-----------------------|
E|-3-------------------1-----------5-|

We are right back into Part II after this spacey interlude, only we wont
play Pattern IIa at anypoint anymore, instead the vocal melody (ohh you can have me)is 
extended twice as long and then we are right into Part IV

Part IV (end of song - repeated ad infinitum)

G|-------------------------------------------------|
D|-------------------------------------------------|
A|--3---3-3---3-------------------------5---5------|
E|--------------1---1-1---1-3---3-3---3-------5---5|


| /  slide up
| \  slide down
| h  hammer-on
| p  pull-off
| ~  vibrato
| +  harmonic
| x  Mute note
=============================================================================
Suggest correction
Give kudos to tab author, rate the tab!
1 2 3 4 5
comments
print report bad tab
guest
You may want to rate the tab now too:
select rating
Wanna post a correction for this tab? Suggest correction