Oops, an error
Loading. Please wait.

Our Composition Book tab

4,909 views 9 this week
3 commentsread comments
1 2 3 4 5
x 7
add to favorites
×
Save as Personal and add changes to this tab that will be seen only by you. Learn more ›
×
You can save this tab as Personal to edit and correct it or add notes. All changes will be seen only by you. Learn more »
launch autoscroll
font size
0
reset
how to read this tab
guitar tuner
edit
Autoscroll
slow
fast
+/-
esc
set tempo
stop
Author
Difficulty
Im still figuring out the chorus parts.

Heres the riff being played over the intro

E-------------------------------------------10-9------------------------|
B --7-5-7-5-7-10-------------7-5-7-5-7-10-7~-----10--7-12-10------------|
G ---------------7-6-7-6-7-9--------------------------------7--7-9-11~--|
D-----------------------------------------------------------------------|
A-----------------------------------------------------------------------|
E-----------------------------------------------------------------------|

E------------------|
B ----10--10-------|
G --11--11--11-7~~-|
D------------------|
A------------------|
E------------------|

I'm not positive these are correct, but I think the chords being played under the intro riff are:

E-----                 E----------|
B---7-                 B----10----|
G --6--   and          G----11----|
D --7--                D----10----|
A --5--                A-----9----|
E------                E----------|


If anyone can help with anything please leave comments!

            
            
Suggest correction
Creating personal tab
Creating personal tab
You can edit any tab online and save it as your Personal.

You can edit, replace or remove any tab part or add personal notes – all changes will be seen only by you.

Personal tabs can be accessed anytime from any device, even offline.
Learn more »
comments
print report bad tab
3 comments total.
0 reply
slangtang 10 Sep 03, 2011 08:25 AM

Excellent tab.

0 reply
yokento 10 Jan 29, 2013 08:15 PM

Nice tab!

One change. Pretty sure it is

E-------------------------------------------10-9------------------------|
B --7-5-7-5-7-10-------------7-5-7-5-7-10--~-----10--7-12-10------------|
G ---------------7-6-7-6-7-9--------------7-----------------7--7-9-11~--|
D-----------------------------------------------------------------------|
A-----------------------------------------------------------------------|
E-----------------------------------------------------------------------|

Subtle but noticeable.

0 reply
shepardsavesusa 10 Mar 19, 2014 07:19 PM

On the first part of the main riff, instead of hitting the 10th fret on the B string, it's much easier to hit the 5th fret on the e string.

e--------------5--------------------------------------------
B--7-5-7-5-7------------------------------------------------

And the last bit of the main riff is easier for me when I play it like this.You have to play with your pinky though.

e-10-9--------------------------------------------------------------
B------10-------12-10----------------------------------10----10-----
G----------11-----------------------9-11---11-9-11--11----11--------
D----------------------12---12-12-------------------------------12--

guest
You may want to rate the tab now too:
select rating
Wanna post a correction for this tab? Suggest correction