Oops, an error
Loading. Please wait.

Nicely Done Bass Tab

16 views 1 this week
no commentswrite comment
1 2 3 4 5
3 more votes to show rating
add to favorites
launch autoscroll
font size
0
reset
guitar tuner
Autoscroll
slow
fast
+/-
esc
set tempo
stop
Help us to improve Ultimate-Guitar.com Take our survey!
×
Author
Difficulty
---------------------------------------------------------------------------------------------
                              Nicely Done-Wild Party (Bass)
---------------------------------------------------------------------------------------------

Tabbed by:Mark Donohue
Email:mwdonohue97@gmail.com

Tuning:Standard

_____________________________________________________________________________________________


[Verse 1] (0:04-0:22)
G|--------------------|----------------------|
D|--------------------|----------------------|
A|--------------------|----------------------|
E|--0--------5--------|--7/--------12--------|

G|--------------------|----------------------|
D|--------------------|----------------------|
A|--------------------|----------------------|
E|--0--------5--------|--7/--------12\-------|


[Pre-Chorus] (0:23-0:32)
G|-----------------------------------|--------------------------------|
D|-----------------------------------|--------------------------------|
A|--4-4-4-4-4-4-----------------4-4--|--------------4-4-7-7-7-7-7-----|
E|--------------7-7-5-5-5-5-5-5------|--7-7-7-7-7-7-------------------|


[Chorus] (0:33-0:53)
G|-----------------------------------|--------------------------------------|
D|-----------------------------------|--------------------------------------|
A|--7-7-7-7-7-7-7-7------------------|------------------2-2-2-2-2---2-2-2/--|
E|------------------5-5-5-5-5-5-5-5\-|--2-2-2-2-2-2-2-2-----------2---------|

G|-----------------------------------|--------------------------------------|
D|-----------------------------------|--------------------------------------|
A|--7-7-7-7-7-7-7-7------------------|--------------------------------------|
E|------------------5-5-5-5-5-5-5-5\-|--2-2-2-2-2-2-2-2/7-7-7-7-7-7-7----0--|


[Verse 2] (0:54-1:13)
G|--------------------|----------------------|
D|--------------------|----------------------|
A|--------------------|----------------------|
E|--0--------5--------|--7/--------12--------|

G|--------------------|-----------------------------|
D|--------------------|-----------------------------|
A|--------------------|-----------------------------|
E|--0--------5--------|--7/--------12----12-12--12\-|


[Pre-Chorus] (1:13-1:22)
G|-----------------------------------|--------------------------------|
D|-----------------------------------|--------------------------------|
A|--4-4-4-4-4-4-----------------4-4--|--------------4-4-7-7-7-7-7-----|
E|--------------7-7-5-5-5-5-5-5------|--7-7-7-7-7-7-------------------|


[Chorus] (1:23-1:42)
G|-----------------------------------|--------------------------------------|
D|-----------------------------------|--------------------------------------| (Play x2)
A|--7-7-7-7-7-7-7-7------------------|------------------2-2-2-2-2---2-2-2/--|
E|------------------5-5-5-5-5-5-5-5\-|--2-2-2-2-2-2-2-2-----------2---------|


[Post-Chorus] (1:43-2:02)
G|-----------------------------------|-----------------------------------|
D|-----------------------------------|-----------------------------------|
A|--7-7-7-7-7-7-7-7------------------|-----------------------------------|
E|------------------5-5-5-5-5-5-5-5\-|--2-2-2-2-2-2-2-2/7-7-7-7-7-7-7-9--|

G|-----------------------------------|-----------------------------------|
D|-----------------------------------|-----------------------------------|
A|--7-7-7-7-7-7-7-7------------------|-----------------------------------|
E|------------------5-5-5-5-5-5-5-5\-|--2-2-2-2-2-2-2-2/7-7-7-7-7-7-7\---|


[Bridge] (2:12-2:23)
G|----------------------|------------------|-----------------------|
D|----------------------|------------------|-----------------------|
A|--4\------2--0--------|--4\--2--------0--|--2/----7--------7\----|
E|----------------------|------------------|-----------------------|


[Chorus] (2:24-3:14)
G|-----------------------------------|--------------------------------------|
D|-----------------------------------|--------------------------2---2-2-2/--|
A|--7-7-7-7-7-7-7-7------------------|------------------2-2-2-2---2---------|
E|------------------5-5-5-5-5-5-5-5\-|--2-2-2-2-2-2-2-2---------------------|

G|-----------------------------------|--------------------------------------|
D|-----------------------------------|--------------------------------------| (Play x3)
A|--7-7-7-7-7-7-7-7------------------|------------------2-2-2-2-2---2-2-2/--|
E|------------------5-5-5-5-5-5-5-5\-|--2-2-2-2-2-2-2-2-----------2---------|

G|-----------------------------------|--------------------------------------|
D|-----------------------------------|--------------------------------------|
A|--7-7-7-7-7-7-7-7------------------|--------------------------------------|
E|------------------5-5-5-5-5-5-5-5\-|--2-2-2-2-2-2-2-2/7-7-7-7-7-7-7\------|


************************************

| /   Slide up
| \   Slide down

************************************
Suggest correction
Give kudos to tab author, rate the tab!
1 2 3 4 5
comments
print report bad tab
guest
You may want to rate the tab now too:
select rating
Wanna post a correction for this tab? Suggest correction