Oops, an error
Loading. Please wait.

Outright Bass Tab

10 views 1 this week
no commentswrite comment
1 2 3 4 5
3 more votes to show rating
add to favorites
launch autoscroll
font size
0
reset
guitar tuner
Autoscroll
slow
fast
+/-
esc
set tempo
stop
Help us to improve Ultimate-Guitar.com Take our survey!
×
---------------------------------------------------------------------------------------------
                                Outright-Wild Party (Bass Tab)
---------------------------------------------------------------------------------------------

Tabbed by:Mark Donohue
Email:mwdonohue97@gmail.com

Tuning:Standard

_____________________________________________________________________________________________



[Intro/Verse 1] (0:00-0:24)

G|---------------------------------------------------|-------------------------------------------|
D|---------------------------------------------------|-------------------------------------------|
A|--10-10-10-10-10-10-10-10-10-10-10-10-10-10-10-10\-|--5-5-5-5-5-5-5-5/12-12-12-12-12-12-12-12--|
E|---------------------------------------------------|-------------------------------------------|

G|---------------------------------------------------|-------------------------------------------|
D|---------------------------------------------------|-------------------------------------------|
A|--10-10-10-10-10-10-10-10-10-10-10-10-10-10-10-10\-|--5-5-5-5-5-5-5-5/12-12-12-12-12\----------|
E|---------------------------------------------------|-------------------------------------------|

G|-----------------------------------|------------------------------------------|
D|-----------------------------------|------------------------------------------|
A|-----------------------------------|------------------------------------------|
E|--3-3-3-3-3-3-3-3-3-3-3-3-3-3-3-3/-|-10-10-10-10-10-10-10-10\5-5-5-5-5-5-5-5--|

G|-----------------------------------|------------------------------------------|
D|-----------------------------------|------------------------------------------|
A|-----------------------------------|------------------------------------------|
E|--3-3-3-3-3-3-3-3-3-3-3-3-3-3-3-3/-|-10-10-10-10-10-10-10-10\5\---------------|



[Pre-Chorus] (0:25-0:37)

G|-------------------------------------------|-----------------------------------|
D|-------------------------------------------|-----------------------------------|
A|--7-7-7-7-7-7-7-7-10-10-10-10-10-10-10-10--|--5-5-5-5-5-5-5-5------------------|
E|-------------------------------------------|------------------5-5-5-5-5-5-5-5--|

G|-------------------------------------------|-----------------------------------|
D|-------------------------------------------|-----------------------------------|
A|--7-7-7-7-7-7-7-7-10-10-10-10-10-10-10-10--|--5-5-5-5-5-5-5-5-9-9----9-9-------|
E|-------------------------------------------|-----------------------------------|



[Chorus] (0:38-0:55)

G|-----------------------------------|------------------------------------------|
D|-----------------------------------|------------------------------------------| (Play x2)
A|-----------------------------------|------------------------------------------|
E|--3-3-3-3-3-3-3-3-3-3-3-3-3-3-3-3/-|-10-10-10-10-10-10-10-10\5-5-5-5-5-5-5-5--|

G|-----------------------------------|
D|-----------------------------------|
A|-----------------------------------|
E|--5-5-5-5-5-5-5-5-5-5-5-5-5-5-5-5--|



[Verse 2] (0:55-1:08)

G|-----------------------------------|------------------------------------------|
D|-----------------------------------|------------------------------------------|
A|-----------------------------------|------------------------------------------|
E|--3-3-3-3-3-3-3-3-3-3-3-3-3-3-3-3/-|-10-10-10-10-10-10-10-10\5-5-5-5-5-5-5-5--|

G|-----------------------------------|------------------------------------------|
D|-----------------------------------|------------------------------------------|
A|-----------------------------------|------------------------------------------|
E|--3-3-3-3-3-3-3-3-3-3-3-3-3-3-3-3/-|-10-10-10-10-10-10-10-10\5\---------------|



[Pre-Chorus] (1:08-1:21)

G|-------------------------------------------|-----------------------------------|
D|-------------------------------------------|-----------------------------------|
A|--7-7-7-7-7-7-7-7-10-10-10-10-10-10-10-10--|--5-5-5-5-5-5-5-5------------------|
E|-------------------------------------------|------------------5-5-5-5-5-5-5-5--|

G|-------------------------------------------|-----------------------------------|
D|-------------------------------------------|-----------------------------------|
A|--7-7-7-7-7-7-7-7-10-10-10-10-10-10-10-10--|--5-5-5-5-5-5-5-5-9-9----9-9-------|
E|-------------------------------------------|-----------------------------------|



[Chorus] (1:21-1:37)

G|-----------------------------------|------------------------------------------|
D|-----------------------------------|------------------------------------------| (Play x2)
A|-----------------------------------|------------------------------------------|
E|--3-3-3-3-3-3-3-3-3-3-3-3-3-3-3-3/-|-10-10-10-10-10-10-10-10\5-5-5-5-5-5-5-5--|

G|-----------------------------------|
D|-----------------------------------|
A|-----------------------------------|
E|--5-5-5-5-5-5-5-5-5-5-5-5-5-5-5-5--|



[Bridge] (1:37-1:59)

G|-----------------------------------|-----------------------------------|
D|-----------------------------------|-----------------------------------|
A|--7-7-7-7-7-7-7-7------------------|--5-5-5-5-5-5-5-5------------------|
E|------------------5-5-5-5-5-5-5-5--|------------------7-7-7-7-7-7-7-7--|

G|-----------------------------------|-----------------------------------|
D|-----------------------------------|-----------------------------------|
A|--7-7-7-7-7-7-7-7------------------|--5-5-5-5-5-5-5-5-5-5-5-5-5-5-5-5--|
E|------------------5-5-5-5-5-5-5-5--|-----------------------------------|

G|-----------------------------------|
D|-----------------------------------|
A|--5-5-5-5-5-5-5-5-5-5-5-5-5-5-5-5--|
E|-----------------------------------|

G|---------------------------------------------------|----------------------------|
D|---------------------------------------------------|----------------------------|
A|--10-10-10-10-10-10-10-10-10-10-10-10-10-10-10-10\-|--5-5-5-5-5-5-5-5/12-12\----|
E|---------------------------------------------------|----------------------------|



[Pre-Chorus] (2:00-2:12)

G|-------------------------------------------|-----------------------------------|
D|-------------------------------------------|-----------------------------------|
A|--7-7-7-7-7-7-7-7-10-10-10-10-10-10-10-10--|--5-5-5-5-5-5-5-5------------------|
E|-------------------------------------------|------------------5-5-5-5-5-5-5-5--|

G|-------------------------------------------|-----------------------------------|
D|-------------------------------------------|-----------------------------------|
A|--7-7-7-7-7-7-7-7-10-10-10-10-10-10-10-10--|--5-5-5-5-5-5-5-5-9-9----9-9-------|
E|-------------------------------------------|-----------------------------------|



[Chorus] (2:13-2:39)

G|-----------------------------------|------------------------------------------|
D|-----------------------------------|------------------------------------------| (Play x4)
A|-----------------------------------|------------------------------------------|
E|--3-3-3-3-3-3-3-3-3-3-3-3-3-3-3-3/-|-10-10-10-10-10-10-10-10\5-5-5-5-5-5-5-5--|



************************************

| /   Slide up
| \   Slide down

************************************

Suggest correction
Give kudos to tab author, rate the tab!
1 2 3 4 5
comments
print report bad tab
guest
You may want to rate the tab now too:
select rating
Wanna post a correction for this tab? Suggest correction