Oops, an error
Loading. Please wait.

Already Gone tab

751 views 3 this week
no commentswrite comment
1 2 3 4 5
x 3
add to favorites
×
Save as Personal and add changes to this tab that will be seen only by you. Learn more ›
×
You can save this tab as Personal to edit and correct it or add notes. All changes will be seen only by you. Learn more »
launch autoscroll
font size
0
reset
how to read this tab
guitar tuner
edit
Autoscroll
slow
fast
+/-
esc
set tempo
stop
-------------------------------------------------------------------------------
                           Wild Rivers – Already Gone
-------------------------------------------------------------------------------
Tabbed by: Stefan Premovic

Band:   http://www.wildriversmusic.com/
Song:   https://www.youtube.com/watch?v=9PjNUO3YDfQ&feature=youtu.be

I made this half tab-half chords, ‘cause there are some hammer-ons in 
verses and outro, rest of the song is all strumming. Also there are 
2 melody fills in the end of both choruses, so there is room for the 
second guitar to join the song.
Special thanks to Wild Rivers for sending me the lyrics. :)

Tuning: Standard, Capo 3rd fret (both guitars)

Intro:
   Em  v     ^ v ^     v     ^ v ^ G   v     ^ v ^     v     ^ v ^
e|-----0-----0-0-0-----0-----0-0-0-----3-----3-3-3-----3-----3-3-3-|
B|-----0-----0-0-0-----0-----0-0-0-----0-----0-0-0-----0-----0-0-0-|
G|-----0-----0-0-0-----0-----0-0-0-----0-----0-0-0-----0-----0-0-0-|
D|-----2-----2-2-2-----2-----2-2-2-----0-----0-0-0-----0-----0-0-0-|
A|-----2-----------0h2-----------------2-----------0h2-------------|
E|-0-------------------------------3-------------------------------|
  
   C   v     ^ v ^     v     ^ v ^     v     ^ v ^     v     ^ v ^
e|-----0-----0-0-0-----0-----0-0-0-----0-----0-0-0-----0-----0-0-0-|
B|-----1-----1-1-1-----1-----1-1-1-----1-----1-1-1-----1-----1-1-1-|
G|-----0-----0-0-0-----0-----0-0-0-----0-----0-0-0-----0-----0-0-0-|
D|-----2-----------0h2-----------------2-----------0h2-------------|
A|-3-------------------------------3-------------------------------|
E|-----------------------------------------------------------------|


Verse 1:
   Em  v     ^ v ^     v     ^ v ^ G   v     ^ v ^     v     ^ v ^
e|-----0-----0-0-0-----0-----0-0-0-----3-----3-3-3-----3-----3-3-3-|
B|-----0-----0-0-0-----0-----0-0-0-----0-----0-0-0-----0-----0-0-0-|
G|-----0-----0-0-0-----0-----0-0-0-----0-----0-0-0-----0-----0-0-0-|
D|-----2-----2-2-2-----2-----2-2-2-----0-----0-0-0-----0-----0-0-0-|
A|-----2-----------0h2-----------------2-----------0h2-------------|
E|-0-------------------------------3-------------------------------|
   I walked out my house tonight  just to hear the quiet 

   C   v     ^ v ^     v     ^ v ^     v     ^ v ^     v     ^ v ^
e|-----0-----0-0-0-----0-----0-0-0-----0-----0-0-0-----0-----0-0-0-|
B|-----1-----1-1-1-----1-----1-1-1-----1-----1-1-1-----1-----1-1-1-|
G|-----0-----0-0-0-----0-----0-0-0-----0-----0-0-0-----0-----0-0-0-|
D|-----2-----------0h2-----------------2-----------0h2-------------|
A|-3-------------------------------3-------------------------------|
E|-----------------------------------------------------------------|
  Listen  to  the dark   before I lie

 Em                         G
Looking to the city lights burning from afar
  C
Glowing at the bottom of the sky 


Verse 2:
Em                         G
I think nothing beautiful comes without a fight
    C
Of course, there's no exception in us
      Em                                G
I've come to love revolving doors and things that tend to shine
         C
But you never really cared for that much


Pre-Chorus:
Em    G    C                                                       Em
Oooooooooh Ain't it just a shame, ending 'bout the same way that we started out
      G      C                                                                  Em
Oooooooooh, Comin' back around with just more jewelry, I'm afraid that we've departed now
      G      C
Ooooooooooooooooh


Chorus:
D             Em                   C           G
   You won't catch me, trains are moving too fast
D               Em               C                G
   What's this railcard to some bits of broken glass?
   D               Em              C             G
   I had a box of pictures that I hid in tall grass
              Em                       C
   You won't find me 'cus I'm already gone
              Em                       C
   You won't find me 'cus I'm already gone

   Em                              G     
e|-----------------------------------------------------------------|
B|-3b5---------------------3---------------------------------------|
G|---------------------------------4---------------2---4---2---0---|
D|-----------------------------------------------------------------|
A|-----------------------------------------------------------------|\
E|-----------------------------------------------------------------| \  guitar 2
   C                                                                  > melody fill
e|-----------------------------------------------------------------| / (optional)
B|-----------------------------------------------------------------|/
G|-2---0-----------------------------------------------------------|
D|-----------------------------------------------------------------|
A|-----------------------------------------------------------------|
E|-----------------------------------------------------------------|


Bridge:
       Em                             G
Well I used to have love, but I was stubborn and drunk
       Am           C
So I squandered it
       Em                           G
I got rid of your taste with some things in a place
           Am        C
Because I wanted it


Pre-Chorus:
Em    G   C                                                       Em
Oooooooooh Ain't it just a shame, ending 'bout the same way that we started out
      G      C                                                                  Em
Oooooooooh, Comin' back around with just more jewelry, I'm afraid that we've departed now
      G     C
Oooooooooooooooh


Chorus:
D             Em                   C           G
   You won't catch me, trains are moving too fast
D               Em               C                G
   What's this railcard to some bits of broken glass?
   D               Em              C             G
   I had a box of pictures that I hid in tall grass
              Em                       C
   You won't find me 'cus I'm already gone
              Em                       C
   You won't find me 'cus I'm already gone

   Em                              G
e|-0---------------------------------------------------------------|
B|-0-----------------------3---------------------------------------|
G|-0---------------2---4-----------4---------------2---4---2---0---|
D|-2---------------------------------------------------------------|
A|-----------------------------------------------------------------|\
E|-----------------------------------------------------------------| \  guitar 2
   C                                                                  > melody fill
e|-----------------------------------------------------------------| / (optional)
B|-----------------------------------------------------------------|/
G|-2---0-----------------------------------------------------------|
D|-----------------------------------------------------------------|
A|-----------------------------------------------------------------|
E|-----------------------------------------------------------------|


Outro:
   Em  v     ^ v ^     v     ^ v ^ G   v     ^ v ^     v     ^ v ^
e|-----0-----0-0-0-----0-----0-0-0-----3-----3-3-3-----3-----3-3-3-|
B|-----0-----0-0-0-----0-----0-0-0-----0-----0-0-0-----0-----0-0-0-|
G|-----0-----0-0-0-----0-----0-0-0-----0-----0-0-0-----0-----0-0-0-|
D|-----2-----2-2-2-----2-----2-2-2-----0-----0-0-0-----0-----0-0-0-|
A|-----2-----------0h2-----------------2-----------0h2-------------|
E|-0-------------------------------3-------------------------------|
   I walked out my house tonight  just to hear the quiet 

   C   v     ^ v ^     v     ^ v ^ v
e|-----0-----0-0-0-----0-----0-0-0-0-------------------------------|
B|-----1-----1-1-1-----1-----1-1-1-1-------------------------------|
G|-----0-----0-0-0-----0-----0-0-0-0-------------------------------|
D|-----2-----------0h2-------------2-------------------------------|
A|-3-------------------------------3-------------------------------|
E|-----------------------------------------------------------------|
  Listen  to  the dark   before I lie


************************************

| v   down strum
| ^   up strum
| h   hammer-on
| b   Bend

************************************

            
            
Suggest correction
Creating personal tab
Creating personal tab
You can edit any tab online and save it as your Personal.

You can edit, replace or remove any tab part or add personal notes – all changes will be seen only by you.

Personal tabs can be accessed anytime from any device, even offline.
Learn more »
Give kudos to tab author, rate the tab!
1 2 3 4 5
comments
print report bad tab
guest
You may want to rate the tab now too:
select rating
Wanna post a correction for this tab? Suggest correction