Oops, an error
Loading. Please wait.

Dogs tab

106 views 3 this week
no commentswrite comment
1 2 3 4 5
3 more votes to show rating
add to favorites
×
Save as Personal and add changes to this tab that will be seen only by you. Learn more ›
×
You can save this tab as Personal to edit and correct it or add notes. All changes will be seen only by you. Learn more »
launch autoscroll
font size
0
reset
how to read this tab
guitar tuner
edit
Autoscroll
slow
fast
+/-
esc
set tempo
stop
Author
Difficulty
Dogs by Wilderado

Great song with a great music video, check it out here: https://www.youtube.com/watch?v=Bo0DDTcJUuk

Wilderado recently changed their name from Bird Dog to Wilderado


[Intro]

e|---------------------------------------------------------------------------|
B|---------------------------------------------------------------------------|
G|---------------------------------------------------------------------------|
D|---------------------------------------------------------------------------|
A|-------------------------------2-2-2-2-2-2-2-2-2-2-2-2-2-2-----------------|
E|---2-2-2-2-2-2-2-2-2-2-2-2-2-2---------------------------------------------|

     Mmmmm   mmmmm   M  m  m     Mmm mm  mm mm  mmm mm  mm mm
e|---------------------------------------------------------------------------|
B|---------------------------------------------------------------------------|
G|---------------------------------------------------------------------------|
D|---------------------------------------------------------------------------|
A|-------------------------------2-2-2-2-2-2-2-2-2-2-2-2-2-2-----------------|
E|---2-2-2-2-2-2-2-2-2-2-2-2-2-2---------------------------------------------|

     Mmmmm   mmmmm   M  m  m     Mmm mm  mm mm  mmm mm  mm mm
e|---------------------------------------------------------------------------|
B|---------------------------------------------------------------------------|
G|---------------------------------------------------------------------------|
D|---------------------------------------------------------------------------|
A|-------------------------------2-2-2-2-2-2-2-2-2-2-2-2-2-2-----------------|
E|---2-2-2-2-2-2-2-2-2-2-2-2-2-2---------------------------------------------|


[Verse]

 Runnin like Dogs, we're helpless lovers
e|---------------------------------------------------------------------------|
B|---------------------------------------------------------------------------|
G|---------------------------------------------------------------------------|
D|---------------------------------------------------------------------------|
A|--------------------------------2-2-2-2-2-2-2-2-2-2-2-2-2-2----------------|
E|----2-2-2-2-2-2-2-2-2-2-2-2-2-2--------------------------------------------|

    We lay in the fog, and steal covers
e|---------------------------------------------------------------------------|
B|---------------------------------------------------------------------------|
G|---------------------------------------------------------------------------|
D|---------------------------------------------------------------------------|
A|-------------------------------2-2-2-2-2-2-2-2-2-2-2-2-2-2-----------------|
E|---2-2-2-2-2-2-2-2-2-2-2-2-2-2---------------------------------------------|

     It's so much colder,  under covers
e|---------------------------------------------------------------------------|
B|---------------------------------------------------------------------------|
G|---------------------------------------------------------------------------|
D|---------------------------------------------------------------------------|
A|-------------------------------2-2-2-2-2-2-2-2-2-2-2-2-2-2-----------------|
E|---4-4-4-4-4-4-4-4-4-4-4-4-4-4---------------------------------------------|

 The mornings alarm in ...(?)
e|---------------------------------------------------------------------------|
B|---------------------------------------------------------------------------|
G|---------------------------------------------------------------------------|
D|---------------------------------------------------------------------------|
A|-------------------------------2-2-2-2-2-2-2-2-2-2-2-2-2-2-----------------|
E|---2-2-2-2-2-2-2-2-2-2-2-2-2-2---------------------------------------------|

  She's singing a song, says it makes her happy
e|---------------------------------------------------------------------------|
B|---------------------------------------------------------------------------|
G|---------------------------------------------------------------------------|
D|---------------------------------------------------------------------------|
A|-------------------------------2-2-2-2-2-2-2-2-2-2-2-2-2-2-----------------|
E|---2-2-2-2-2-2-2-2-2-2-2-2-2-2---------------------------------------------|

People say we've been gone to long, dogs just have a way with leaving
e|---------------------------------------------------------------------------|
B|---------------------------------------------------------------------------|
G|---------------------------------------------------------------------------|
D|---------------------------------------------------------------------------|
A|---------------------------------------------4-4-4-4-4-4-4-----------------|
E|---4-4-4-4-4-4-4-4-4-4-4-4-4-4-2-2-2-2-2-2-2-------------------------------|


[Chorus]

     Mmmmm   mmmmm   M  m  m     Mmm mm  mm mm  mmm mm  mm mm
e|---------------------------------------------------------------------------|
B|---------------------------------------------------------------------------|
G|---------------------------------------------------------------------------|
D|---------------------------------------------------------------------------|
A|-------------------------------2-2-2-2-2-2-2-2-2-2-2-2-2-2-----------------|
E|---2-2-2-2-2-2-2-2-2-2-2-2-2-2---------------------------------------------|

     Mmmmm   mmmmm   M  m  m     Mmm mm  mm mm  mmm mm  mm mm
e|---------------------------------------------------------------------------|
B|---------------------------------------------------------------------------|
G|---------------------------------------------------------------------------|
D|---------------------------------------------------------------------------|
A|-------------------------------2-2-2-2-2-2-2-2-2-2-2-2-2-2-----------------|
E|---2-2-2-2-2-2-2-2-2-2-2-2-2-2---------------------------------------------|


[Verse]

 Stranger to shores, heading off to Portland
e|---------------------------------------------------------------------------|
B|---------------------------------------------------------------------------|
G|---------------------------------------------------------------------------|
D|---------------------------------------------------------------------------|
A|--------------------------------2-2-2-2-2-2-2-2-2-2-2-2-2-2----------------|
E|----2-2-2-2-2-2-2-2-2-2-2-2-2-2--------------------------------------------|

Oh its going to far, just to feel important
e|---------------------------------------------------------------------------|
B|---------------------------------------------------------------------------|
G|---------------------------------------------------------------------------|
D|---------------------------------------------------------------------------|
A|-------------------------------2-2-2-2-2-2-2-2-2-2-2-2-2-2-----------------|
E|---2-2-2-2-2-2-2-2-2-2-2-2-2-2---------------------------------------------|

   Through the night we sleep alone, waiting for the morning to call us lazy
e|---------------------------------------------------------------------------|
B|---------------------------------------------------------------------------|
G|---------------------------------------------------------------------------|
D|---------------------------------------------------------------------------|
A|---------------------------------------------4-4-4-4-4-4-4-----------------|
E|---4-4-4-4-4-4-4-4-4-4-4-4-4-4-2-2-2-2-2-2-2-------------------------------|

We've still got our black jeans on, singing songs to lovely ladies
e|---------------------------------------------------------------------------|
B|---------------------------------------------------------------------------|
G|---------------------------------------------------------------------------|
D|---------------------------------------------------------------------------|
A|---------------------------------------------4-4-4-4-4-4-4-----------------|
E|---4-4-4-4-4-4-4-4-4-4-4-4-4-4-2-2-2-2-2-2-2-------------------------------|


                                  I can still hear my fathers voice
e|---------------------------------------------------------------------------|
B|---------------------------------------------------------------------------|
G|---------------------------------------------------------------------------|
D|-------------------------------4-4-4-4-4-4-4-4-4-4-4-4-4-4-----------------|
A|---2-2-2-2-2-2-2-2-2-2-2-2-2-2-2-2-2-2-2-2-2-2-2-2-2-2-2-2-----------------|
E|---------------------------------------------------------------------------|

 Telling me that I should slow down, slow down, slow down, slow down, slow down
e|---------------------------------------------------------------------------------|
B|---------------------------------------------------------------------------------|
G|---------------------------------------------------------------------------------|
D|----4-4-4-4-4-4-4-4-4-4-4-4-4-4--------------------------------------------------|
A|----2-2-2-2-2-2-2-2-2-2-2-2-2-2--4-------6---------4----------6---------4------6-|
E|---------------------------------2-------4---------2----------4---------2------4-|


[Outro]
  
       Mmmmm   mmmmm   M  m  m     Mmm mm  mm mm  mmm mm  mm mm
e|---------------------------------------------------------------------------|
B|---------------------------------------------------------------------------|
G|---------------------------------------------------------------------------|
D|---------------------------------------------------------------------------|
A|---------------------------------------------------------------------------|
E|---------------------------------------------------------------------------|

      Mmmmm   mmmmm   M  m  m     Mmm mm  mm mm  mmm mm  mm mm
e|---------------------------------------------------------------------------|
B|---------------------------------------------------------------------------|
G|---------------------------------------------------------------------------|
D|---------------------------------------------------------------------------|
A|---------------------------------------------------------------------------|
E|---------------------------------------------------------------------------|

     Mmmmm   mmmmm   M  m  m     Mmm mm  mm mm  mmm mm  mm mm
e|---------------------------------------------------------------------------|
B|---------------------------------------------------------------------------|
G|---------------------------------------------------------------------------|
D|-------------------------------4-4-4-4-4-4-4-4-4-4-4-4-4-4-----------------|
A|---4-4-4-4-4-4-4-4-4-4-4-4-4-4-2-2-2-2-2-2-2-2-2-2-2-2-2-2-----------------|
E|---2-2-2-2-2-2-2-2-2-2-2-2-2-2---------------------------------------------|

     Mmmmm   mmmmm   M  m  m     Mmm mm  mm mm  mmm mm  mm mm
e|---------------------------------------------------------------------------|
B|---------------------------------------------------------------------------|
G|---------------------------------------------------------------------------|
D|-------------------------------4-4-4-4-4-4-4-4-4-4-4-4-4-4-----------------|
A|---4-4-4-4-4-4-4-4-4-4-4-4-4-4-2-2-2-2-2-2-2-2-2-2-2-2-2-2-----------------|
E|---2-2-2-2-2-2-2-2-2-2-2-2-2-2---------------------------------------------|

     Mmmmm   mmmmm   M  m  m     Mmm mm  mm mm  mmm mm  mm mm
e|---------------------------------------------------------------------------|
B|---------------------------------------------------------------------------|
G|---------------------------------------------------------------------------|
D|-------------------------------4-4-4-4-4-4-4-4-4-4-4-4-4-4-----------------|
A|---4-4-4-4-4-4-4-4-4-4-4-4-4-4-2-2-2-2-2-2-2-2-2-2-2-2-2-2-----------------|
E|---2-2-2-2-2-2-2-2-2-2-2-2-2-2---------------------------------------------|

     Mmmmm   mmmmm   M  m  m     Mmm mm  mm mm  mmm mm  mm mm
e|---------------------------------------------------------------------------|
B|---------------------------------------------------------------------------|
G|---------------------------------------------------------------------------|
D|-------------------------------4-4-4-4-4-4-4-4-4-4-4-4-4-4-----------------|
A|---4-4-4-4-4-4-4-4-4-4-4-4-4-4-2-2-2-2-2-2-2-2-2-2-2-2-2-2-----------------|
E|---2-2-2-2-2-2-2-2-2-2-2-2-2-2---------------------------------------------|

            
            
Suggest correction
Creating personal tab
Creating personal tab
You can edit any tab online and save it as your Personal.

You can edit, replace or remove any tab part or add personal notes – all changes will be seen only by you.

Personal tabs can be accessed anytime from any device, even offline.
Learn more »
Give kudos to tab author, rate the tab!
1 2 3 4 5
comments
print report bad tab
guest
You may want to rate the tab now too:
select rating
Wanna post a correction for this tab? Suggest correction