Oops, an error
Loading. Please wait.

The Ocean And The Sea tab

226 views 9 this week
no commentswrite comment
1 2 3 4 5
x 3
add to favorites
×
Save as Personal and add changes to this tab that will be seen only by you. Learn more ›
×
You can save this tab as Personal to edit and correct it or add notes. All changes will be seen only by you. Learn more »
launch autoscroll
font size
0
reset
how to read this tab
guitar tuner
edit
Autoscroll
slow
fast
+/-
esc
set tempo
stop
Author
The Ocean and the Sea by Wilderado
tabbed by guitarzack1


                            Blue             is the ocean,                   Green              is  
e|-------------------------|------------------------|------------------------|------------------------|
B|-------------------------|------------------------|------------------------|------------------------|
G|-------------------------|------------------------|------------------------|------------------------|
D|-------------------------|------------------------|------------------------|------------------------|
A|-------------------------|------------------------|------------------------|------------------------|
E|-3--3--3--3--3--3--3--3--|3--3--3--3--3--3--3--3--|3--3--3--3--3--3--3--3--|3--3--3--3--3--3--3--3--|

  the sea                 I         chose between them                    they              both    chose
e|-------------------------|------------------------|------------------------|------------------------|
B|-------------------------|------------------------|------------------------|------------------------|
G|-------------------------|------------------------|------------------------|------------------------|
D|-------------------------|------------------------|------------------------|------------------------|
A|-------------------------|------------------------|------------------------|------------------------|
E|-0--0--0--0--0--0--0--0--|3--3--3--3--3--3--3--3--|3--3--3--3--3--3--3--3--|0--0--0--0--0--0--0--0--|

   me                                               Painted black on my door   Are you waitin for a
e|-------------------------|------------------------|------------------------|------------------------|
B|-------------------------|------------------------|------------------------|------------------------|
G|-------------------------|------------------------|------------------------|------------------------|
D|-------------------------|--0--0--0--0--0--0--0--0|--0--0--0--0--0--0--0--0|--0--0--0--0--0--0--0--0|
A|-------------------------|------------------------|------------------------|------------------------|
E|-3--3--3--3--3--3--3--3--|3--3--3--3--3--3--3--3--|3--3--3--3--3--3--3--3--|3--3--3--3--3--3--3--3--|
 

 christ                to come back                 Give me some and I want more, are you sure if theres
e|-------------------------|------------------------|------------------------|------------------------|
B|-------------------------|------------------------|------------------------|------------------------|
G|-------------------------|------------------------|------------------------|------------------------|
D|---2--2--2--2--2--2--2--2|--0--0--0--0--0--0--0--0|--0--0--0--0--0--0--0--0|--0--0--0--0--0--0--0--0|
A|-------------------------|------------------------|------------------------|------------------------|
E|-0--0--0--0--0--0--0--0--|3--3--3--3--3--3--3--3--|3--3--3--3--3--3--3--3--|3--3--3--3--3--3--3--3--|

  time                       if theres          time                                         oh  oh
e|-------------------------|------------------------|------------------------|------------------------|
B|-------------------------|------------------------|------------------------|------------------------|
G|-------------------------|------------------------|---4--2p0-----0---------|---4--2p0-----0---------|
D|---2--2--2--2--2--2--2--2|--0--0--0--0--0--0--0--0|----------2------2--0--0|-----------2-----2--0--0|
A|-------------------------|------------------------|------------------------|------------------------|
E|-0--0--0--0--0--0--0--0--|3--3--3--3--3--3--3--3--|3--3--3--3--3--3--3--3--|3--3--3--3--3--3--3--3--|

  oh                  if theres time                 Come light the day your sun starts to wake my
e|-------------------------|------------------------|------------------------|------------------------|
B|-------------------------|------------------------|------------------------|------------------------|
G|----2--2p0-----0---------|---4--2p0-----0---------|------------------------|------------------------|
D|------------2-----2--0--0|----------2------2~-----|--0--0--0--0--0--0--0--0|--0--0--0--0--0--0--0--0|
A|-------------------------|------------------------|------------------------|------------------------|
E|-0--0--0--0--0--0--0--0--|3--3--3--3--3--3--------|3--3--3--3--3--3--3--3--|3--3--3--3--3--3--3--3--|

  eyes             bless my   eyes                     so hesitate on          my    shoulder
e|-------------------------|------------------------|------------------------|------------------------|
B|-------------------------|------------------------|------------------------|------------------------|
G|-------------------------|------------------------|------------------------|------------------------|
D|---2--2--2--2--2--2--2--2|--0--0--0--0--0--0--0--0|--0--0--0--0--0--0--0--0|--0--0--0--0--0--0--0--0|
A|-------------------------|------------------------|------------------------|------------------------|
E|-0--0--0--0--0--0--0--0--|3--3--3--3--3--3--3--3--|3--3--3--3--3--3--3--3--|3--3--3--3--3--3--3--3--|

        weigh on my         soul                                                               oh oh
e|-------------------------|------------------------|------------------------|------------------------|
B|-------------------------|------------------------|------------------------|------------------------|
G|-------------------------|------------------------|---4--2p0-----0---------|---4--2p0-----0---------|
D|---2--2--2--2--2--2--2--2|--0--0--0--0--0--0--0--0|----------2------2--0--0|-----------2-----2--0--0|
A|-------------------------|------------------------|------------------------|------------------------|
E|-0--0--0--0--0--0--0--0--|3--3--3--3--3--3--3--3--|3--3--3--3--3--3--3--3--|3--3--3--3--3--3--3--3--|

   oh                 on my soul               oh oh  oh              on my soul
e|-------------------------|------------------------|------------------------|------------------------|
B|-------------------------|------------------------|------------------------|------------------------|
G|----2--2p0-----0---------|---4--2p0-----0---------|---2--2p0-----0---------|---4--2p0-----0---------|
D|------------2-----2--0--0|----------2------2--0--0|-----------2-----2--0--0|----------2------2--0---|
A|-------------------------|------------------------|------------------------|------------------------|
E|-0--0--0--0--0--0--0--0--|3--3--3--3--3--3--3--3--|0--0--0--0--0--0--0--0--|3--3--3--3--3--3--3-----|

                                                                       wooh
e|-2--2--------3--3--------|3--3--3--3--3--3--3--3--|2--2--------3--3--------|3--3--3--3--3--3--3--3--|
B|-3--3--------5--5--------|3--3--3--3--3--3--3--3--|3--3--------5--5--------|3--3--3--3--3--3--3--3--|
G|-4--4--------4--4--------|4--4--4--4--4--4--4--4--|4--4--------4--4--------|4--4--4--4--4--4--4--4--|
D|-4--4--------5--5--------|5--5--5--5--5--5--5--5--|4--4--------5--5--------|5--5--5--5--5--5--5--5--|
A|-2--2--------3--3--------|5--5--5--5--5--5--5--5--|2--2--------3--3--------|5--5--5--5--5--5--5--5--|
E|-------------------------|3--3--3--3--3--3--3--3--|------------------------|3--3--3--3--3--3--3--3--|

                                                                              Who do I ought to blame
e|-3--3--3--3--3--3--3--3--|3--3--3--3--3--3--3--3--|3--3--3--3--3--3--3--3--|3--3--3--3--3--3--3--3--|
B|-3--3--3--3--3--3--3--3--|3--3--3--3--3--3--3--3--|3--3--3--3--3--3--3--3--|3--3--3--3--3--3--3--3--|
G|-4--4--4--4--4--4--4--4--|4--4--4--4--4--4--4--4--|4--4--4--4--4--4--4--4--|4--4--4--4--4--4--4--4--|
D|-5--5--5--5--5--5--5--5--|5--5--5--5--5--5--5--5--|5--5--5--5--5--5--5--5--|5--5--5--5--5--5--5--5--|
A|-5--5--5--5--5--5--5--5--|5--5--5--5--5--5--5--5--|5--5--5--5--5--5--5--5--|5--5--5--5--5--5--5--5--|
E|-3--3--3--3--3--3--3--3--|3--3--3--3--3--3--3--3--|3--3--3--3--3--3--3--3--|3--3--3--3--3--3--3--3--|

      you and I are the same  except your older now                            Who do I ought to blame
e|-3--3--3--3--3--3--3--3--|0--0--0--0--3--3--3--3--|3--3--3--3--3--3--3--3--|3--3--3--3--3--3--3--3--|
B|-3--3--3--3--3--3--3--3--|0--0--0--0--5--5--5--5--|3--3--3--3--3--3--3--3--|3--3--3--3--3--3--3--3--|
G|-4--4--4--4--4--4--4--4--|0--0--0--0--4--4--4--4--|4--4--4--4--4--4--4--4--|4--4--4--4--4--4--4--4--|
D|-5--5--5--5--5--5--5--5--|2--2--2--2--5--5--5--5--|5--5--5--5--5--5--5--5--|5--5--5--5--5--5--5--5--|
A|-5--5--5--5--5--5--5--5--|2--2--2--2--3--3--3--3--|5--5--5--5--5--5--5--5--|5--5--5--5--5--5--5--5--|
E|-3--3--3--3--3--3--3--3--|0--0--0--0--------------|3--3--3--3--3--3--3--3--|3--3--3--3--3--3--3--3--|

   you and I are the same        except you're older now                            yeah you're older
e|-3--3--3--3--3--3--3--3--|0--0--0--0--3--3--3--3--|3--3--3--3--3--3--3--3--|2--2--------3--3--------|
B|-3--3--3--3--3--3--3--3--|0--0--0--0--5--5--5--5--|3--3--3--3--3--3--3--3--|3--3--------5--5--------|
G|-4--4--4--4--4--4--4--4--|0--0--0--0--4--4--4--4--|4--4--4--4--4--4--4--4--|4--4--------4--4--------|
D|-5--5--5--5--5--5--5--5--|2--2--2--2--5--5--5--5--|5--5--5--5--5--5--5--5--|4--4--------5--5--------|
A|-5--5--5--5--5--5--5--5--|2--2--2--2--3--3--3--3--|5--5--5--5--5--5--5--5--|2--2--------3--3--------|
E|-3--3--3--3--3--3--3--3--|0--0--0--0--------------|3--3--3--3--3--3--3--3--|------------------------|

  now                              yeah you're older now                      now                  my
e|-3--3--3--3--3--3--3--3--|2--2--------3--3--------|3--3--3--3--3--3--3--3--|3--3--3--3--3--3--3--3--|
B|-3--3--3--3--3--3--3--3--|3--3--------5--5--------|3--3--3--3--3--3--3--3--|3--3--3--3--3--3--3--3--|
G|-4--4--4--4--4--4--4--4--|4--4--------4--4--------|4--4--4--4--4--4--4--4--|4--4--4--4--4--4--4--4--|
D|-5--5--5--5--5--5--5--5--|4--4--------5--5--------|5--5--5--5--5--5--5--5--|5--5--5--5--5--5--5--5--|
A|-5--5--5--5--5--5--5--5--|2--2--------3--3--------|5--5--5--5--5--5--5--5--|5--5--5--5--5--5--5--5--|
E|-3--3--3--3--3--3--3--3--|------------------------|3--3--3--3--3--3--3--3--|3--3--3--3--3--3--3--3--|

   soul                     now                      now                  my         soul
e|-0--0--0--0--3--3--3--3--|3--3--3--3--3--3--3--3--|3--3--3--3--3--3--3--3--|0--0--0--0--3--3--3--3--|
B|-0--0--0--0--5--5--5--5--|3--3--3--3--3--3--3--3--|3--3--3--3--3--3--3--3--|0--0--0--0--5--5--5--5--|
G|-0--0--0--0--4--4--4--4--|4--4--4--4--4--4--4--4--|4--4--4--4--4--4--4--4--|0--0--0--0--4--4--4--4--|
D|-2--2--2--2--5--5--5--5--|5--5--5--5--5--5--5--5--|5--5--5--5--5--5--5--5--|2--2--2--2--5--5--5--5--|
A|-2--2--2--2--3--3--3--3--|5--5--5--5--5--5--5--5--|5--5--5--5--5--5--5--5--|2--2--2--2--3--3--3--3--|
E|-0--0--0--0--------------|3--3--3--3--3--3--3--3--|3--3--3--3--3--3--3--3--|0--0--0--0--------------|


e|-3~----------------------|------------------------|------------------------|------------------------|
B|-3~----------------------|------------------------|------------------------|------------------------|
G|-4~----------------------|---4--2p0-----0---------|---4--2p0-----0---------|---2--020-----0---------|
D|-5~----------------------|----------2------2--0--0|-----------2-----2--0--0|----------2------2--0--0|
A|-5~----------------------|------------------------|------------------------|------------------------|
E|-3~----------------------|3--3--3--3--3--3--3--3--|3--3--3--3--3--3--3--3--|0--0--0--0--0--0--0--0--|
                                             (quick hammer and pull off right here  ^
                                            but I didn't want to effect the rythym) |
e|-------------------------|
B|-------------------------|
G|-------------------------|
D|-------------------------|
A|-------------------------|
E|-3~----------------------|



************************************

| p  Pull-off
| ~  Vibrato

************************************

            
            
Suggest correction
Creating personal tab
Creating personal tab
You can edit any tab online and save it as your Personal.

You can edit, replace or remove any tab part or add personal notes – all changes will be seen only by you.

Personal tabs can be accessed anytime from any device, even offline.
Learn more »
Give kudos to tab author, rate the tab!
1 2 3 4 5
comments
print report bad tab
guest
You may want to rate the tab now too:
select rating
Wanna post a correction for this tab? Suggest correction