Oops, an error
Loading. Please wait.

Son Of The Blue Sky Tab

version 1
version 1

Whole song

Interactive

10,250 views 6 this week
no commentswrite comment
1 2 3 4 5
excellent!
x 5
add to favorites
launch autoscroll
font size
0
reset
how to read this tab
guitar tuner
Autoscroll
slow
fast
+/-
esc
set tempo
stop
Help us to improve Ultimate-Guitar.com Take our survey!
×
Intro

E|----------------------------------------------------------------0---|
H|------0-------0-------0---------------0-------0-------0-------3-----|
G|----0---0---0---0---0---0-----0-----0---0---0---0---0---0-----------|
D|--5-------4-------2---------2---2-5-------4-------2---------2-------|
A|--------------------------3-------------------------------3---------|
E|--------------------------------------------------------------------|

part1, part2
G a e C
G a e
G a e C
G a e

Bridge

E|----------------------|
H|----------------------|
G|---------1-------4----|
D|-------0-------0------|
A|-----2-------5--------|
E|---3-------6----------|


Chorus:
G a e C
G a e C

End
A e }x8
C


And solo ... ?
comments
print report bad tab
I want to post or [tab]
guest
You may want to rate the tab now too:
select rating
Please do not post tabs as comments. Select "correction" instead!