Oops, an error
Loading. Please wait.

Abide The Winter guitar pro

455 views 1 this week
5 commentsread comments
1 2 3 4 5
3 more votes to show rating
add to favorites
guitar tuner
Autoscroll
slow
fast
+/-
esc
set tempo
stop
About this tab version
Re-tabbed with two voices to capture the nuances of the song. Several notations were redone with notes tied in order to match the recorded version. Was this info helpful? Yes No
"Abide The Winter"
demo version
Play now

or get full version for Free

×
Get full version now!
Learn and play this song
in Tab Pro
Try for free

or get $10 off Welcome Bonus

Get welcome bonus
Get access to Tab Pro version of “Abide The Winter”!
Tab Pro is a premium guitar tab service, available on PC, Mac, iOS and Android
TRY FOR FREE
Your download will start in 7 seconds
×
Like this song? We have more! Follow us on Facebook for daily tips, lessons and other guitar-related content.
To download “Abide The Winter” Guitar Pro tab click button below
Please note that you must have Guitar Pro software installed on your
computer in order to view this file.
Suggest correction
Give kudos to tab author, rate the tab!
1 2 3 4 5
comments
report bad tab
5 comments total. Showing first comments.
0 reply
k2ws1 10 Aug 14, 2013 05:57 PM

Measures 39-42 are incorrect.

0 reply
k2ws1 10 Aug 14, 2013 06:15 PM

pause                             pause
|-----------0h1--|--3---3---3-----|---------0h1--|--3---3---3---|
|-----------0-----|--0---------------|---------0-----|--0-------------|
|-----------0h2--|--4---------------|--------0h2--|--4-------------|
|------------------|-------------------|--------0h2--|--4-------------|
|------------------|-------------------|---------------|-----------------|
|------------------|-------------------|---------------|-----------------| x2

0 reply
k2ws1 10 Jul 07, 2014 03:37 AM

pause pause
|-----------0h1--|--3---3---3-----|---------0h1--|--3---3---3---3-|
|-----------0----|--0-------------|---------0----|--0-------------|
|-----------0h2--|--4-------------|---------0h2--|--4-------------|
|-------------------|-------------|---------0h2--|--4-------------|
|-------------------|-------------|--------------|----------------|
|-------------------|-------------|--------------|----------------|

guest
You may want to rate the tab now too:
select rating