Oops, an error
Loading. Please wait.

Eyes Tab

1,287 views 3 this week
no commentswrite comment
1 2 3 4 5
please rate
add to favorites
launch autoscroll
font size
0
reset
how to read this tab
guitar tuner
Tab Pro tools
  • play this tab
  • loop segment
  • change instrument
  • show fretboard
  • metronome
×
Best way to learn
"Eyes"
Autoscroll
slow
fast
+/-
esc
set tempo
stop
Contributor
Difficulty
novice
This is the song Eyes by Will And The People of their album Friends. 
I composed it using my acoustic guitar.
Hope you'll like it :)
E---------------------------------------|
B---------------------------------------|
G-5--5--7--7-8-7--3--3--5--5-5----------|    X2
D---------------------------------------|
A---------------------------------------|
E---------------------------------------|

E------------------------------------------------|
B-----------------3-3-4-4-4----------------------|    
G-5--5--7--7--7-----------------5--4--5----------|
D------------------------------------------------|
A------------------------------------------------|
E------------------------------------------------|

At 0:29 it returns like this
E---------------------------------------|
B---------------------------------------|
G-5--5--7---------3--3--5---------------|    
D---------------------------------------|      X2
A---------------------------------------|
E---------------------------------------|

E---------------------------------------|
B------------------3--3--4--------------|
G-5--5--7------------------------5------|    
D---------------------------------------|     
A---------------------------------------|
E---------------------------------------|

Chorus at 1:01:
E------------------------------------------------------------------------------|
B------------------------------------------------------------------------------|
G-------10-10-8-7---------10-10-8-7------0-0-0-8-8-7-5-0-0-0-8-8-7-5-----------| 
D-8-8-8-------------8-8-8------------------------------------------------------| X2
A------------------------------------------------------------------------------|
E------------------------------------------------------------------------------|

Chorus at 1:47:
E------------------------------------------------------------------------------|
B------------------------------------------------------------------------------|
G-------10-10-8-7---------10-10-8-7------0-0-0-8-8-7-5-0-0-0-8-8-7-5-----------| 
D-8-8-8-------------8-8-8------------------------------------------------------| X4
A------------------------------------------------------------------------------|
E------------------------------------------------------------------------------|

At 2:08
E---------------------------------------|
B---------8-----------------------------|
G-5-5-7-7---7-3-3-5-5-5-----------------|    X2
D---------------------------------------|
A---------------------------------------|
E---------------------------------------|

E---------------------------------------|
B---------8---3-3-4---------------------|
G-5-5-7-7---7---------5-4-5-------------|    
D---------------------------------------|
A---------------------------------------|
E---------------------------------------|

The first chorus will return at 2:47

At 3:34
E-----------------------------------------------------------|
B-------11-11--------11-11--------11-11---------------------|
G-88888-------8-7--7-------8-7--7-------8----5-7-8--7-------|  X5  
D-----------------------------------------------------------|
A-----------------------------------------------------------|
E-----------------------------------------------------------|
comments
We did not receive enough feedback on this tab! Please rate:
print report bad tab
1 2 3 4 5
I want to post or [tab]
guest
You may want to rate the tab now too:
select rating
Please do not post tabs as comments. Select "correction" instead!